Eminem - Going Through Changes tab

Reuben95
Just changed a few things from the last tab so credit to them for the basics of it but I 
changed what strings the verse is played on and some notes, also redid the chorus.

Intro

e|-----------------------------------------------|
B|-----------------------------------------------|
G|--2-5-2-------2-5-2-------2-5-2-------2-5-2----|
D|3-------3-2-2-------3-2-0-------3-2-0-------3-2|
A|-----------------------------------------------|
E|-----------------------------------------------|

e|-----------------------------------------------|
B|-----------------------------------------------|
G|--2-5-2-------2-5-2-------2-5-2-------2-5-2----|
D|3-------3-2-2-------3-2-0-------3-2-0----------|
A|-----------------------------------------------|
E|-----------------------------------------------|


Verse

e|---------------------------------------------|
B|---------------------------------------------|
G|---------------------------------------------|
D|-3--------2-3-5-2--------3-2-0------0-2-0----|
A|---------------------------------------------|
E|---------------------------------------------|

e|---------------------------------------------|
B|---------------------------------------------|
G|---------------------------------------------|
D|0---2-3----6h7-5-3-2-----3-2-0------0-2-0----|
A|---------------------------------------------|
E|---------------------------------------------|

e|---------------------------------------------|
B|---------------------------------------------|
G|---------------------------------------------|
D|0---2-3----2-3-5-2-------3-2-0------0-2-0----|
A|---------------------------------------------|
E|---------------------------------------------|

e|---------------------------------------------|
B|---------------------------------------------|
G|---------------------------------------------|
D|0---2----------------------------------------|
A|---------------------------------------------|
E|---------------------------------------------|


Chorus

e|-----------------------------------------------|
B|-----------------------------------------------|
G|--2-5-2-------2-5-2-------2-5-2-------2-5-2----|
D|3-------3-2-2-------3-2-0-------3-2-0-------3-2|
A|-----------------------------------------------|
E|-----------------------------------------------|

e|-----------------------------------------------|
B|-----------------------------------------------|
G|--2-5-2-------2-5-2-------2-5-2-------2-5-2----|
D|3-------3-2-2-------3-2-0-------3-2-0----------|
A|-----------------------------------------------|
E|-----------------------------------------------|

Verse

e|---------------------------------------------|
B|---------------------------------------------|
G|---------------------------------------------|
D|-3--------2-3-5-2--------3-2-0------0-2-0----|
A|---------------------------------------------|
E|---------------------------------------------|

e|---------------------------------------------|
B|---------------------------------------------|
G|---------------------------------------------|
D|0---2-3----6h7-5-3-2-----3-2-0------0-2-0----|
A|---------------------------------------------|
E|---------------------------------------------|

e|---------------------------------------------|
B|---------------------------------------------|
G|---------------------------------------------|
D|0---2-3----2-3-5-2-------3-2-0------0-2-0----|
A|---------------------------------------------|
E|---------------------------------------------|

e|---------------------------------------------|
B|---------------------------------------------|
G|---------------------------------------------|
D|0---2----------------------------------------|
A|---------------------------------------------|
E|---------------------------------------------|


Chorus

e|-----------------------------------------------|
B|-----------------------------------------------|
G|--2-5-2-------2-5-2-------2-5-2-------2-5-2----|
D|3-------3-2-2-------3-2-0-------3-2-0-------3-2|
A|-----------------------------------------------|
E|-----------------------------------------------|

e|-----------------------------------------------|
B|-----------------------------------------------|
G|--2-5-2-------2-5-2-------2-5-2-------2-5-2----|
D|3-------3-2-2-------3-2-0-------3-2-0----------|
A|-----------------------------------------------|
E|-----------------------------------------------|



Verse

e|---------------------------------------------|
B|---------------------------------------------|
G|---------------------------------------------|
D|-3--------2-3-5-2--------3-2-0------0-2-0----|
A|---------------------------------------------|
E|---------------------------------------------|

e|---------------------------------------------|
B|---------------------------------------------|
G|---------------------------------------------|
D|0---2-3----6h7-5-3-2-----3-2-0------0-2-0----|
A|---------------------------------------------|
E|---------------------------------------------|

e|---------------------------------------------|
B|---------------------------------------------|
G|---------------------------------------------|
D|0---2-3----2-3-5-2-------3-2-0------0-2-0----|
A|---------------------------------------------|
E|---------------------------------------------|

e|---------------------------------------------|
B|---------------------------------------------|
G|---------------------------------------------|
D|0---2----------------------------------------|
A|---------------------------------------------|
E|---------------------------------------------|

Chorus

e|-----------------------------------------------|
B|-----------------------------------------------|
G|--2-5-2-------2-5-2-------2-5-2-------2-5-2----|
D|3-------3-2-2-------3-2-0-------3-2-0-------3-2|
A|-----------------------------------------------|
E|-----------------------------------------------|

e|-----------------------------------------------|
B|-----------------------------------------------|
G|--2-5-2-------2-5-2-------2-5-2-------2-5-2----|
D|3-------3-2-2-------3-2-0-------3-2-0----------|
A|-----------------------------------------------|
E|-----------------------------------------------|



Verse

e|---------------------------------------------|
B|---------------------------------------------|
G|---------------------------------------------|
D|-3--------2-3-5-2--------3-2-0------0-2-0----|
A|---------------------------------------------|
E|---------------------------------------------|

e|---------------------------------------------|
B|---------------------------------------------|
G|---------------------------------------------|
D|0---2-3----6h7-5-3-2-----3-2-0------0-2-0----|
A|---------------------------------------------|
E|---------------------------------------------|

e|---------------------------------------------|
B|---------------------------------------------|
G|---------------------------------------------|
D|0---2-3----2-3-5-2-------3-2-0------0-2-0----|
A|---------------------------------------------|
E|---------------------------------------------|

e|---------------------------------------------|
B|---------------------------------------------|
G|---------------------------------------------|
D|0---2-3----6h7-5-3-2-----3-2-0------0-2-0----|
A|---------------------------------------------|
E|---------------------------------------------|

e|---------------------------------------------|
B|---------------------------------------------|
G|---------------------------------------------|
D|0---2----------------------------------------|
A|---------------------------------------------|
E|---------------------------------------------|

Chorus

e|-----------------------------------------------|
B|-----------------------------------------------|
G|--2-5-2-------2-5-2-------2-5-2-------2-5-2----|
D|3-------3-2-2-------3-2-0-------3-2-0-------3-2|
A|-----------------------------------------------|
E|-----------------------------------------------|

e|-----------------------------------------------|
B|-----------------------------------------------|
G|--2-5-2-------2-5-2-------2-5-2-------2-5-2----|
D|3-------3-2-2-------3-2-0-------3-2-0----------|
A|-----------------------------------------------|
E|-----------------------------------------------|


Outro (Verse fading out)

e|---------------------------------------------|
B|---------------------------------------------|
G|---------------------------------------------|
D|-3--------2-3-5-2--------3-2-0------0-2-0----|
A|---------------------------------------------|
E|---------------------------------------------|

e|---------------------------------------------|
B|---------------------------------------------|
G|---------------------------------------------|
D|0---2-3----6h7-5-3-2-----3-2-0------0-2-0----|
A|---------------------------------------------|
E|---------------------------------------------|

e|---------------------------------------------|
B|---------------------------------------------|
G|---------------------------------------------|
D|0---2-3----2-3-5-2-------3-2-0------0-2-0----|
A|---------------------------------------------|
E|---------------------------------------------|

e|---------------------------------------------|
B|---------------------------------------------|
G|---------------------------------------------|
D|0---2----------------------------------------|
A|---------------------------------------------|
E|---------------------------------------------|
Tap to rate this tab
 
# A B C D E F G H I J K L M N O P Q R S T U V W X Y Z