Song name
# A B C D E F G H I J K L M N O P Q R S T U V W X Y Z

Eminem - My Name Is tab

-------------------------------------------------------------------------------
			     MY NAME IS - Eminem
-------------------------------------------------------------------------------
Tabbed by: ironmanben
Email: bentrooper@gmail.com

Tuning: e B G D A E

guitar 1 - clean
guitar 2 - distortion

   
   F               G               Bb               G#
e|-----------------------------------------------------------------|
B|-----------------------------------------------------------------|
G|-----10--------------12--------------15----------------11--108---|
D|--------------------------------11/12----------------------------|
A|11/12-----------13/14----------------------------10/11-----------|
E|-----------------------------------------------------------------|
-|                                                                 |
e|-----------------------------------------------------------------|
B|-----------------------------------------------------------------|
G|-----------------------------------------------------------------|
D|-----------------------------------------------------------------|
A|-----------------------------------------------------------------|
E|-0h1-------------2/3-------------5/6-------------6/4-------------|

************************************

| /   slide up
| \   slide down
| h   hammer-on
| p   pull-off
| ~   vibrato
| +   harmonic
| x   Mute note
| b   Bend
| pb  Pre-bend
| br  Bend release
| pbr Pre-bend release
| brb Bend release bend

************************************
Tap to rate this tab
 
# A B C D E F G H I J K L M N O P Q R S T U V W X Y Z