Guitaretab - guitar tabs
Song name
# A B C D E F G H I J K L M N O P Q R S T U V W X Y Z

Eminem - Beautiful tab

intro) 

Em                C 
Lately iíve been hard to reach 
D                        Em 
Iíve been too long on my own 
Em                C 
Everybody has a private world 
               D    Em 
Where they can be alone 

C               D 
Are you calling me? 
          Bb7+          C 
Are you trying to get through? 
                 C 
Are you reaching out for me? 
                  D 
Like iím reaching out for you. 

(segue a seqŁencia) 

(Em D C C) 



Markings
~ Hold Notes
s Slide to
h Hammer-on
p Pull-off

Hold each note for as long as possible before playing the next one.

Played first time
e|----------8--------------------------8~---|
B|----------9--------------------------9~---|
G|---------10--------------------8~----10~--|
D|-----10------10-----6-------6--8~----10~--|
A|--8--------------4-----6s8-----6~----8~---|
E|------------------------------------------|

Second Time
e|----------8--------------------------8~----------------|
B|----------9--------------------------9~----9h11p9------|
G|---------10--------------------8~----10~---------------|
D|-----10------10-----6-------6--8~----10~-----------10--|
A|--8--------------4-----6s8-----6~----8~----------------|
E|-------------------------------------------------------|

e|-------4--------------8~----8~-------------------------------|
B|-------4--------------9~----9~-------------------------------|
G|--6~------8~-----9~---10~--------6~-----8~---------------10--|
D|--6~------8~-----9~---10~--------6~-----8~---------------10--|
A|--4~------6~-----7~---8~---------4~-----6~--------8h11---8---|
E|----------------------------------------------8h11-----------| Rapping Begins


ORRR
EMINEM - BEAUTIFUL
STANDARD TUNING - EADGbe
SOLO/OUTRO
 
|LEGEND:                               
|h  HAMMER-ON                        
|p  PULL-OFF                          
|s  SLIDE                            
|b# BEND SO THAT IT SOUNDS LIKE THE # 
|*  LET RING                          

[ Tab from: http://www.guitaretab.com/e/eminem/299245.html ]
e|---13-15-15b16-15p13-13-----------13*---13-11----------------------|
b|13---------------------16-16p13-13-----------13-11b13--------------|
G|-----------------------------------------------------10------------|
D|-------------------------------------------------------------------|
A|-------------------------------------------------------------------|
E|-------------------------------------------------------------------|

e|------------------------------11b13r12_16s18-18b20-18b20-18b20-18b20r18-16*|
b|------------13-11-11p9h11p9--9---------------------------------------------|
G|10-10-10-8--10-------------10----------------------------------------------|
D|----------10---------------------------------------------------------------|
A|---------------------------------------------------------------------------|
E|---------------------------------------------------------------------------|
                 
e|-------------------------------------------------------------------|
b|13h16-16s18-18-18p16-----16p13--------13---------------------------|
G|--------------------17p15-----15p13h15--15-13----------------------|
D|---------------------------------------------15-15-15-15-----------|
A|--------------------------------------------------------15-13------|
E|-------------------------------------------------------------16-13-|

e|-------------------------------------------------------------------|
b|---------13-16b18-13-16b18-13-16b18-16b18-16b18-16b18-13-----------|
G|--------------------------------------------------------15-13------|
D|----13h15----------------------------------------------------15----|
A|--15---------------------------------------------------------------|
E|13-----------------------------------------------------------------|

e|-----------15----16----16--16---------------------------------16----------------|
b|-----------------------------16-16b18-16b18-16b18r16--16b18r16--16b18r16--16b18*|
G|--13-13--13----13----13-----------------------------17------------------17------|
D|15-----15----15----15-----------------------------------------------------------|
A|--------------------------------------------------------------------------------|
E|--------------------------------------------------------------------------------|

e|13-15-16-16-15-13-11s13*---------------------|-------|
b|----------------------------13p11h13-11p9h11-|-------|
G|---------------------------------------------|-music-|
D|---------------------------------------------|-fades-|
A|---------------------------------------------|-------|

Related for Beautiful tab
Beautiful chords by Eminem