Song name
# A B C D E F G H I J K L M N O P Q R S T U V W X Y Z

Eminem - Hailies Song tab

-------------------------------------------------------------------------------
			  Hailie's Song - Eminem
-------------------------------------------------------------------------------
Tabbed by: Henry Mahon
Email: 8lackMagic@gmail.com

Tuning: Standard

e|---------------------------------------------------------------------------|
B|---------------------------------------------------------------------------|
G|-7-9-10-12-10-9-12-10-9-9-10-----------------------------------------------|
D|---------------------------------------------------------------------------|
A|---------------------------------------------------------------------------|
E|---------------------------------------------------------------------------|
  Cuz sometimes it feels like the world's on my shoulders


e|---------------------------------------------------------------------------|
B|---------------------------------------------------------------------------|
G|-14-12-10-12-10-12-9-------------------------------------------------------|
D|---------------------------------------------------------------------------|
A|---------------------------------------------------------------------------|
E|---------------------------------------------------------------------------|
  Everyone's leaning on me

e|---------------------------------------------------------------------------|
B|---------------------------------------------------------------------------|
G|-7-7-9-10-12-10-9-12-10-9-9-10---------------------------------------------|
D|---------------------------------------------------------------------------|
A|---------------------------------------------------------------------------|
E|---------------------------------------------------------------------------|
  But my baby knows that her daddy's a soilder

e|---------------------------------------------------------------------------|
B|---------------------------------------------------------------------------|
G|-14-12-10-12-10-12-14-17---------------------------------------------------|
D|---------------------------------------------------------------------------|
A|---------------------------------------------------------------------------|
E|---------------------------------------------------------------------------|
  Nothing can take her from meeee....

| /  slide up
| \  slide down
| h  hammer-on
| p  pull-off
| ~  vibrato
| +  harmonic
| x  Mute note
===============================================================================

Notes: My first tab, I play the song like this and it sounds PERFECT! Good luck!
Tap to rate this tab
 
# A B C D E F G H I J K L M N O P Q R S T U V W X Y Z