Song name
# A B C D E F G H I J K L M N O P Q R S T U V W X Y Z

Eminem - Collapse tab

-----------------------------------------------------------------------
                             Collapse - Eminem
-----------------------------------------------------------------------

By: Mack 10

Intro
e|--------------------------------------------------------------------|
B|--------------------------------------------------------------------|
G|--------------------------------------------------------------------|
D|-------6-6-6-6-6-4-6-7-6-----------6-6-6-6-6-4-6--------------------|
A|-(2)-4-----------------------(2)-4---------------7------------------|
E|--------------------------------------------------------------------|

Intro cont.
e|--------------------------------------------------------------------|
B|--------------------------------------------------------------------|
G|--------------------------------------------------------------------|
D|-------6-6-6-6-6-4-6-7-6-----------6-6-6-6-6-4-6--------------------|
A|-(2)-4-----------------------(2)-4---------------7---6---2---4------|
E|--------------------------------------------------------------------|

*() Only used during the verse, not the intro

This part is also played later on
e|--------------------------------------------------------------------|
B|--------------------------------------------------------------------|
G|--------------------------------------------------------------------|
D|--------------------------------------------------------------------|
A|-7-6-7-0---7-6-2-4---7-6-7-9-6-7-3-4--------------------------------|
E|--------------------------------------------------------------------|

That's the pretty much the entire song, I don't think I missed anyting
Tap to rate this tab
 
# A B C D E F G H I J K L M N O P Q R S T U V W X Y Z