Song name
# A B C D E F G H I J K L M N O P Q R S T U V W X Y Z

Eminem - Till I Collapse tab

Variant on Bosco's version, same notes, but all played in 4th position, no shifting.
e------------------------------------------------|
B------------------------------------------------|
G------------------------------------------------|
D----6-6-6-6-6-4-6-7-6-------6-6-6-6-6-4-6-------|
A--4-----------------------4---------------7-----|
E------------------------------------------------|

e--------------------------------------------------------|
B--------------------------------------------------------|
G--------------------------------------------------------|
D----6-6-6-6-6-4-6-7-6-------6-6-6-6-6-4-6---------------|
A--4-----------------------4---------------7---6---4-----|
E------------------------------------------------7-------|
That's it, guitar tabbing of the synth played in the song.
Tap to rate this tab
# A B C D E F G H I J K L M N O P Q R S T U V W X Y Z