Song name
# A B C D E F G H I J K L M N O P Q R S T U V W X Y Z

Eminem - If I Get Locked Up Tonight tab

e---------------------------------------
b---------------------------------------
g----10-10-10-10-5-5-5----5-3-3-3-6-6-5-
d----8--8--8--8--3-3-3----3-1-1-1-4-4-3-
a---------------------------------------
e-6-------------------------------------


e--------------------------------------
b--------------------------------------
g-5-3-3-3-3-6-6-5---5-3-3-3-3----------
d-3-1-1-1-1-4-4-3---3-1-1-1-1--6-5-3---
a------------------------------4-3-1---
e--------------------------------------

Tabs r misleading, it may seem like sum space between each note, but its played
pretty fast, download the song, listen to it, an u'll get the timing rite

Tabbed by JOHNNY
Tap to rate this tab
# A B C D E F G H I J K L M N O P Q R S T U V W X Y Z