Song name
# A B C D E F G H I J K L M N O P Q R S T U V W X Y Z

Eminem - Lose Yourself tab

e-17-13----17-15-------15-17-13-------20----17-13----17-15-------15-17-13------|
B-------15-------17-13----------15----------------15-------17-13----------15---|
G------------------------------------------------------------------------------|
D------------------------------------------------------------------------------|
A------------------------------------------------------------------------------|
E------------------------------------------------------------------------------|

e------------------------------------------------------------------------------|
B-15-------15-13------------------------14-------------------------------------|
G----15-12-----------15-14-12-----14-15--------6-------------------------------|
D------------------------------------------7-8---------------------------------|
A------------------------------------------------------------------------------|
E------------------------------------------------------------------------------|

e------------------------------------------------13-15-13----------------------|
B------------------------------------------------15-17-15----------------------|
G------------------------------------------------------------------------------|
D-7-7-7-7-7-7-7-7--8-8-8-8-8-8-8-8-8--7--REPEAT--------------------------------|
A-5-5-5-5-5-5-5-5--5-5-5-5-5-5-5-5-5--5----------------------------------------|
E------------------------------------------------------------------------------|
Tap to rate this tab
# A B C D E F G H I J K L M N O P Q R S T U V W X Y Z