Guitaretab - guitar tabs
Song name
# A B C D E F G H I J K L M N O P Q R S T U V W X Y Z

Eminem - Sing For The Moment tab

*EMINEM
*SING FOR THE MOMENT

Tabbed by:Alejandro Cervantes
Email: aperwon@aol.com

Tuning: EADGBe

*Its the same of 2 version (cause Im the
same taber) but its now complete with final
solo. Please rate this 
 
Intro
e|--4---4---3---3----|--4---4---3---3---|
B|--6---6---4---4----|--3---3---2---2---|
G|----5---5---5---5--|----5---5---5---5-|
D|-------------------|------------------|
A|-------------------|------------------|
E|-------------------|------------------|


e|--4---4---6---6----|--8----6--4-------|
B|--6---6---6---6----|--6----6--6-------|
G|----5---5---5---5--|--5----5--5-------|
D|-------------------|------------------|
A|-------------------|------------------|
E|-------------------|------------------|


e|--4---4---6---6----|--8---8---6---6---|
B|--6---6---6---6----|--6---6---6---6---|
G|----5---5---5---5--|---5----5---5-----|
D|-------------------|------------------|
A|-------------------|------------------|
E|-------------------|------------------|


e|--4---4---6---6----|---8--------------|
B|--6---6---6---6----|---6--------------|
G|----5---5---5---5--|---5--------------|
D|-------------------|------------------|
A|-------------------|------------------|
E|-------------------|------------------|

Verse
e|------------------|----------------|----------------|------------------|
B|------1-----------|----------------|----------------|------------------|
G|----1-------------|----------------|----------0-----|---1--------3-----|
D|--3--------1------|------------1---|---3------------|------------------|
A|------------------|---4------------|----------------|------------------|
E|------------------|----------------|----------------|------------------|

Chorus
e|--------------------|-----------------------|----------------------|
B|--------------------|-----------------------|----------------------|
G|--------------------|-----------------------|----------------------|
D|---10--------8------|----6---------6--------|---10-----------------|
A|----8--------6------|----4---------8--------|----8-----------5-----|
E|--------------------|-----------------------|----------------3-----|


e|--------------------|-----------------------|----------------------|
B|--------------------|-----------------------|----------------------|
G|--------------------|-----------------------|----------------------|
D|--------------------|-----------------------|----------------------|
A|----6--------8------|-----------------------|----------------------|
E|----4--------6------|----8h9p8h9p8h9p8h9----|----8h9p8h9p8h9p8h9---|

Solo
e|--------------------------14---------------14---|
B|------------------------------17p14-----14------|
G|----------------------16------------16----------|
D|------------------------------------------------|
A|------------------------------------------------|
D|------------------------------------------------|

e|--17--14h17p14------14-------------17p14----|
B|----------------17------1417--14-----------|
G|--------------------------------------------|
D|--------------------------------------------|
A|--------------------------------------------|
D|--------------------------------------------|

e|--14h17p14--------14-------------------------------|
B|------------14-17-------14---------------17--------|
G|---------------------16----14----16-14-16----16-16-|
D|------------------------------16-------------------|
A|---------------------------------------------------|
D|---------------------------------------------------|

e|----------------------------14--------14-14-----|
B|--14v--------------------14----14-17b-------17--|
G|-----16-16-14-16-----16b------------------------|
D|------------------16----------------------------|
A|------------------------------------------------|
D|------------------------------------------------|
[ Tab from: http://www.guitaretab.com/e/eminem/33467.html ]
e|----17----14-----------14------14---------------|
B|-------14----17-14---------17b----17p14----14---|
G|-16----------------16b------------------16------|
D|------------------------------------------------|
A|------------------------------------------------|
D|------------------------------------------------|

e|-14-------------14------------14------------15--------14--|
B|----17p14----14---17p14----14---17p14----14----14-17b-----|
G|----------16------------16------------16------------------|
D|----------------------------------------------------------|
A|----------------------------------------------------------|
D|----------------------------------------------------------|

e|-----14-------------14-----14-------------|
B|-17b----17b-14--17b----17b----17b17v-----|
G|------------------------------------------|
D|------------------------------------------|
A|------------------------------------------|
D|------------------------------------------|

e|-------17p14----14----17-19v-17b----17--14---|
B|-14----------------14------------------------|
G|----16-------16------------------16----------|
D|---------------------------------------------|
A|---------------------------------------------|
D|---------------------------------------------|

e|--14-------14------------------------17------|
B|-----17-14------16b16b-14-16-14-16b----16b--|
G|---------------------------------------------|
D|---------------------------------------------|
A|---------------------------------------------|
D|---------------------------------------------|

e|---------------------------------------------|
B|-----14--------------------------------------|
G|-16b----16-16-16b-14-16-16-16b-14-16-16-16b--|
D|---------------------------------------------|
A|---------------------------------------------|
D|---------------------------------------------|

e|----------------------------------------------|
B|------------------14b--------14b--------14b---|
G|--14-16-16-16b-14-16b--14-16-16b--14-16-16b---|
D|----------------------------------------------|
A|----------------------------------------------|
D|----------------------------------------------|

e|--------------------------------------14---------|
B|--------14b-------14-----------17-17b----17p14---|
G|--14-16-16b14-16-18-16-14-16b----16b------------|
D|-------------------------------------------------|
A|-------------------------------------------------|
D|-------------------------------------------------|

e|---------------------------------------------------|
B|------------------------------------14----14-------|
G|--17p16p14--16p14-----14------------14----1416b---|
D|------------------16-----16p14-16------16----------|
A|---------------------------------------------------|
D|---------------------------------------------------|

e|------------------------------------14----17v----|
B|--17p14--------------------14-17-14----14--------|
G|--14----16-16p14-----14--------------------------|
D|-----------------16-----16-----------------------|
A|-------------------------------------------------|
D|-------------------------------------------------|

e|--17v-17v-17v-17v-17v---14-----14-----14----|
B|-------------------------------17b----17b-------|
G|------------------------------------------------|
D|------------------------------------------------|
A|------------------------------------------------|
D|------------------------------------------------|

e|--14-----14-14-------14-----------------------------|
B|-----17b-------17-14----17b-------------------------|
G|----------------------------16-14-16-14-------------|
D|----------------------------------------16-14-16v---|
A|----------------------------------------------------|
D|----------------------------------------------------|

P= pull on      
H= hammer      
V= vibrato      
b= bend
Related for Sing For The Moment tab