Song name
# A B C D E F G H I J K L M N O P Q R S T U V W X Y Z

Eminem - Rock Bottom tab

-11-10-11------11-10-11----------11-10-11-----------------------------------|
-------------11~--------------12~---------11h12p11--9-----------------------|
----------------------------------------------------------------------------|
----------------------------------------------------------------------------|
----------------------------------------------------------------------------|
----------------------------------------------------------------------------|


-----------------------------------9-12-11-----------------|
--11-10-11--10h11p10--8/7/8--10-11-------------------------|
-----------------------------------------------------------|
-----------------------------------------------------------|
-----------------------------------------------------------|
-----------------------------------------------------------|


---------------------------------6--------------------------------------------|
---11---9---7---9~---9--7--6--7-----9--7--6--4//------------------------------|
------------------------------------------------------------------------------|
------------------------------------------------------------------------------|
------------------------------------------------------------------------------|
------------------------------------------------------------------------------|
Tap to rate this tab
# A B C D E F G H I J K L M N O P Q R S T U V W X Y Z