Song name
# A B C D E F G H I J K L M N O P Q R S T U V W X Y Z

Eminem - Love The Way You Lie tab

                              Love The Way You Lie
Intro

While Rihanna is singing.

E|-------10------10-----------|---------------------------------------|
B|-8-8-6-----8-6----8-7-------|-4-4--4--3-3--4-4--3-3-----------------|
G|----------------------------|-----------------------5-5-------------|
D|----------------------------|---------------------------------------|
A|----------------------------|---------------------------------------|
E|----------------------------|---------------------------------------|

E|-------10-------10----------|---------------------------------------|
B|-8-8-6-----8-6-----8-7------|-4-4--4--3-3--4-4--3-3-----------------|
G|----------------------------|-----------------------5-5-------------|
D|----------------------------|---------------------------------------|
A|----------------------------|---------------------------------------|
E|----------------------------|---------------------------------------|

E|----------------------------|---------------------------------------|
B|-4--3-3---------------------|---------------------------------------|
G|--------3-3-----------------|---------------------------------------|
D|----------------------------|---------------------------------------|
A|----------------------------|---------------------------------------|
E|----------------------------|---------------------------------------|

Chorus

Chords: Capo 3rd Fret ,Strumming Pattern:DDDU DUUD DUDU for each chord

   Em    Cadd9     G       D
e|--0-| e|--3-| e|--3-| e|--2-|
B|--0-| B|--3-| B|--3-| B|--3-|
G|--0-| G|--0-| G|--0-| G|--2-|
D|--2-| D|--2-| D|--0-| D|--0-|
A|--2-| A|--3-| A|--2-| A|--X-|
E|--0-| E|--X-| E|--3-| E|--X-|


When you play the song it'll be easier if you include the Capo for the intro as well 
just like in the chorus.
Tap to rate this tab
 
# A B C D E F G H I J K L M N O P Q R S T U V W X Y Z