Song name
# A B C D E F G H I J K L M N O P Q R S T U V W X Y Z

Eminem - Survival tab

-------------------------------------------------------------------------------
                             SURVIVAL - EMINEM
-------------------------------------------------------------------------------
Tabbed by: JAMES

THIS IS THE CORRECT WAY TO PLAY, I WATCHED THE GUITARIST WHEN SEEING IT LIVE IN GLASGOW

Intro Riff:

e---------------------------------------|
B---------------------------------------|     
G---3----------3---------3------------7^|    
D-----5--3--5----5--3--5----5--3--5-----|  
A---------------------------------------|     
E---------------------------------------| 

e|--------------------------------------------------------------------------|
B|--------------------------------------------------------------------------|
G|------------------3--3----5--7---7----------------------------------------|
D|---5----3---------3--3----5--7---7----------------------------------------|
A|---5----3---------1--1----3--5---5----------------------------------------|
E|---3----1-----------------------------------------------------------------|
Tap to rate this tab
# A B C D E F G H I J K L M N O P Q R S T U V W X Y Z