Song name
# A B C D E F G H I J K L M N O P Q R S T U V W X Y Z

Eminem - Berzerk tab

These are the chords I came up with for the general song,
learning the strumming is up to you.
The rest of the song follows and uses the exact same chords.
ENJOY!

s=slide

Intro:
--------------------------------|
--------------------------------|
---3---3---6s8--5s7--6s8--------|
-3-3---3---5s7--5s7--5s7--7-----|
-3-1---1---3s5--3s5--3s5--7-----|
-1 -----------------------5-5-1-|

Verses x3:
---------------------|
---------------------|
6s8--5s7--6s8--------|
5s7--5s7--5s7--7-----|
3s5--3s5--3s5--7-----|
---------------5-5-1-|

Bridge x2:
-------------------|
-6s5--6s5--6s5-----|
-5s4--5s4--5s4-----|
-3s2--3s2--3s2-7-3-|
---------------7-3-|
---------------5-1-|

Chorus x4:
-----------|
-----------|
-7-7-7-----|
-7-7-7-----|
-5-5-5-----|
-------5-1-|
Tap to rate this tab
 
# A B C D E F G H I J K L M N O P Q R S T U V W X Y Z