Song name
# A B C D E F G H I J K L M N O P Q R S T U V W X Y Z

Eminem - Berzerk tab

Drop D ((THIS IS THE RIGHT WAY))

-Handsome Sean Tab #1

Into
---------------------------|
6s8-------6s8--------------|
5s7--5s7--5s7--------------|
3s5--5s7--3s5--7--5--3--2--|
-----3s5-------7--5--3--2--|
---------------7--5--3--2--|
             \This part is
             played 2nd time/

Chorus 1 "All night long!"

e: ---------------------|
b: ---------------------|
g: ---------------------|   x 2
d: ---5-----3-----0-----|
a: ---5-----3-----0-----|
D: ---5-----3-----0-----|

Chorus 2 "We're gonna rock this house..."
(You play 1 open d chord when you hear it in the song with the drums)

e: -------|
D: -------|
b: -------|
g: ---0---|
d: ---0---|   x 11 Then repeat chorus 1
a: ---0---|
Tap to rate this tab
 
# A B C D E F G H I J K L M N O P Q R S T U V W X Y Z