Song name
# A B C D E F G H I J K L M N O P Q R S T U V W X Y Z

Eminem - Rap God tab

-------------------------------------------------------------------------------
                             RAP GOD - EMINEM
-------------------------------------------------------------------------------
Tabbed by: linkme620
E-mail: linkme620@gmail.com

Tuning: standard

CAPO 3


basically, strum theese three strings;

e|---------------------------------------------------------------------------|
B|---------------------------------------------------------------------------|
G|---------------------------------------------------------------------------|
D|----2---2---2---2---2---2--2---2-------------------------------------------|
A|----2---2---2---2---2---2--2---2-------------------------------------------|
E|----0---0---0---3---0---0--0---3-------------------------------------------|


repeat.

occasionally, when u feel like it, add in this;


e|---------------------------------------------------------------------------|
B|---------------------------------------------------------------------------|
G|---------------------------------------------------------------------------|
D|----2---2---2---2-----2-----2--2--2----------------------------------------|
A|----2---2---2---2-----2-----2--2--2----------------------------------------|
E|----0---0---0---3p0---3p0---0--0--0----------------------------------------|



and a small solo part :P

e|---0-0-0-3p0--3p0--0-0-0---------------------------------------------------|
B|---------------------------------------------------------------------------|
G|---------------------------------------------------------------------------|
D|---------------------------------------------------------------------------|
A|---------------------------------------------------------------------------|
E|---------------------------------------------------------------------------|


correct and fill in what i've missed. enjoy :D
Tap to rate this tab
 
# A B C D E F G H I J K L M N O P Q R S T U V W X Y Z