Song name
# A B C D E F G H I J K L M N O P Q R S T U V W X Y Z

Eminem - Bagpipes From Baghdad tab

-------------------------------------------------------------------------------
                             Bagpipes From Baghdad - Eminem
-------------------------------------------------------------------------------
Tabbed by: linkme620
E-mail: linkme620@gmail.com
Tuning: standard

e|---------------------------------------------------------------------------|
B|----4---3h4-3--------------------------------------------------------------|
G|---------------5-------3---------------------------------------------------|
D|-----------------5--6-----6-5---3-----3h5---3------------------------------|
A|-----------------------------------6-----------6--5--3---------------------|
E|---------------------------------------------------------------------------|


OR capo 3


e|---------------------------------------------------------------------------|
B|----1---0h1-0--------------------------------------------------------------|
G|---------------2-------0---------------------------------------------------|
D|-----------------2--3-----3-2---0-----0h2---0------------------------------|
A|-----------------------------------3-----------3--2--0---------------------|
E|---------------------------------------------------------------------------|

have fun :D
Tap to rate this tab
 
# A B C D E F G H I J K L M N O P Q R S T U V W X Y Z