Song name
# A B C D E F G H I J K L M N O P Q R S T U V W X Y Z

Eminem - The Real Slim Shady tab

This more of an edit on another tab posted originally by Uriel Garcia.
I just think it sounds better this way and I am, of course, open to constructive criticism.

h = hammer on
p = pull off
/ = slide

e|----------8------------------------|
B|------8-9----9-8--9-8h9p8/6-8------|
G|--5-8-------------------------8----|
D|-----------------------------------|
A|-----------------------------------|
E|-----------------------------------|

This just repeated throughout the song.



***** NOTE *****
After listening closer to the song I found that this way sounds more like the the song.

e|----------8--------------------7---|
B|------8-9----9-8--9-8h9p8/6-8------|
G|--5-8------------------------------|
D|-----------------------------------|
A|-----------------------------------|
E|-----------------------------------|



In my opinion both ways sound good. However, I believe the most accurate is the second version.
Tap to rate this tab
 
# A B C D E F G H I J K L M N O P Q R S T U V W X Y Z