Song name
# A B C D E F G H I J K L M N O P Q R S T U V W X Y Z

Eminem - The Monster tab

------------------------------------------------------
                  The Monster - Eminem (feat Rhianna)
------------------------------------------------------
Tabbed by: Myself
E-mail: exclushiv@gmail.com

Tuning: Standard (EBGDAE)

This is the chorus melody.

-> Enjoy :) <-


~ means hold the note for a splitsecond longer

E|---------7~~---------------------------------------|
B|-5-5-7-5-----9~-5-7-5-9~---------------------------|
G|-------------------------6-------------------------|
D|---------------------------------------------------|
A|---------------------------------------------------|
E|---------------------------------------------------|
   I'm friends with the monster that's under my bed

E|---------7~~---------------------------------------|
B|-5-5-7-5-----9~-5-7-5-9~-9~------------------------|
G|---------------------------------------------------|
D|---------------------------------------------------|
A|---------------------------------------------------|
E|---------------------------------------------------|
   Get along with the voices inside of my head

E|---------7~~---------------------------------------|
B|-5-5-7-5-----9~-5-7-5-9~---------------------------|
G|-------------------------6-------------------------|
D|---------------------------------------------------|
A|---------------------------------------------------|
E|---------------------------------------------------|
   You're trying to save me, stop holding your breath

E|---------7~~------------7~~------------------------|
B|-5-5-7-5-----9~-5-5-7-5-----9~-10-10-10-10-9~------|
G|---------------------------------------------------|
D|---------------------------------------------------|
A|---------------------------------------------------|
E|---------------------------------------------------|
   And you think I'm crazy, yeah, you think I'm crazy
   Well, that's not fair

E|-----7-------------------7-------------------------|
B|-9-7---9~--9-7-7-----9-7---9~----5-7---------------|
G|-----------------6~------------6-----6~------------|
D|---------------------------------------------------|
A|---------------------------------------------------|
E|---------------------------------------------------|
   oh oh oh oh, oh oh oh oh, oh oh oh oh,
   Well, that's not fair

E|-----7-------------------7-------------------------|
B|-9-7---9~--9-7-7-----9-7---9~----5-7---------------|
G|-----------------6~------------6-----6~------------|
D|---------------------------------------------------|
A|---------------------------------------------------|
E|---------------------------------------------------|
   oh oh oh oh, oh oh oh oh, oh oh oh oh, oh oh oh oh



Email me any corrections if needed.
Tap to rate this tab
# A B C D E F G H I J K L M N O P Q R S T U V W X Y Z