Song name
# A B C D E F G H I J K L M N O P Q R S T U V W X Y Z

Eminem - Mushrooms tab

This is Eminems Mushroom, i made it up all by myself and i think its pretty good! (an 
my first submitted tab!!) From Clare
e------------------------------------|
b------------------------------------|
g------------------------------------|
d------------------------------------|
a-7-7-7-7-7-7-7-7-8-5----------------|
e------------------------------------|

e------------------------------------|
b------------------------------------|
g------------------------------------|
d------------------------------------|
a-5-5-5-5-5-5-5-10-8-7---------------|
e------------------------------------|

e------------------------------------|
b------------------------------------|
g------------------------------------|
d------------------------------------|
a-7-7-7-7-7-7-7-7-8-7-5--------------|

e------------------------------------|
e------------------------------------|
b------------------------------------|
g------------------------------------|
d------------------------------------|
a-5-5-5-8-7--------------------------|
e------------------------------------|
Tap to rate this tab
# A B C D E F G H I J K L M N O P Q R S T U V W X Y Z