Song name
# A B C D E F G H I J K L M N O P Q R S T U V W X Y Z

Eminem - Square Dance tab

e|----------------------------------------------------------------------|
B|----------------------------------------------------------------------|
G|----1------0----------------------------------------------------------|
D|------------------3------1--------------------------------------------|x2 
A|3-3----3-3----3-3----3-3----------------------------------------------|
E|----------------------------------------------------------------------|

e|-------------------------------------------------------------------------|
B|-------------------------------------------------------------------------|
G|----1--------------0---1-1-0-0-1-1-0-0-----------------------------------|
D|-----------1-----3---3-----------------3-3-------------------------------|
A|3-3----3-3---3-3---------------------------1-0-1-0-1-0-1-0/1-------------|
E|-------------------------------------------------------------------------|
Tap to rate this tab
 
# A B C D E F G H I J K L M N O P Q R S T U V W X Y Z