Song name
# A B C D E F G H I J K L M N O P Q R S T U V W X Y Z

Emma Roberts - I Wanna Be tab

Song:I Wanna Be
Artist:Chris Brown
Tabber:serenade_edy
email:jevin12@yahoo.com (add me at friendster or myspace)
Tuning:standard

Ok so this is my tab for I wanna be hope you like it and i used guitar for tabbing not 
piano but this is the piano riff arrange on guitar P.S idk how to play piano but i hope 
close to it

fingerpicking on the

Intro,Verse,Chorus:
e|-----------------------------------------------------|
B|-----------------------------------------------------|
G|------------15----12h14h15p14p12---11--7-------------|
D|---------14------------------------11--7-------------|
A|-----14----------------------------12--8-------------|
E|--12-------------------------------------------------|

e|-----------------------------------------------------|
B|-----------------------------------------------------|
G|------------15----12h14h15p14p12---11--6-------------|
D|---------14------------------------11--6-------------|
A|-----14----------------------------12--7-------------|
E|--12-------------------------------------------------|

e|--------------------------------------------------|
B|--------------------------------------------------|
G|-------8---------8--------------------------------|
D|-----9---------7----------------------------------|
A|---9---------7------------------------------------|
E|-7---------5--------------------------------------|

this all through the song enjoy...
Tap to rate this tab
# A B C D E F G H I J K L M N O P Q R S T U V W X Y Z