Guitaretab - guitar tabs
Song name
# A B C D E F G H I J K L M N O P Q R S T U V W X Y Z

Emma Roberts - Mexican Wrestler tab

Song: Mexican Wrestler(Never Love Me)
Album: Unfabulous and more
Artist: Emma Roberts
Tabbed by: YA89

mistakenly i've add Dummy tab to this songs name. i really like to hear from u! myguitar_y@yahoo.com


Standard Tuning(EADGBE)



::VERSES::
 G                                   D
 
E|-----------3----------------------|-----------2----------------------|
B|--------------3-------------------|--------3-----3-------------------|
G|------------------0---------------|-----2-----------2----------------|
D|--------0-------------------------|--0-------------------------------|
A|-----2----------------------------|----------------------------------|
E|--3-------------------------------|----------------------------------|


 F                                   C
 
E|--------------1-------------------|-----------0----------------------|
B|-----------1-----1----------------|--------------1-------------------|
G|--------2-----------2-------------|--------0---------0---------------|
D|-----3----------------------------|-----2----------------------------|
A|----------------------------------|--3-------------------------------|
E|----------------------------------|----------------------------------|  X5



You really want me...

 G                                   D
 
E|-----------3----------------------|-----------2----------------------|
B|--------------3-------------------|--------3-----3-------------------|
G|------------------0---------------|-----2-----------2----------------|
D|--------0-------------------------|--0-------------------------------|
A|-----2----------------------------|----------------------------------|
E|--3-------------------------------|----------------------------------|


 F                                   F
 
E|--------------1-------------------|-------------1--------------------|
B|-----------1-----1----------------|-----------1----1-----------------|
G|--------2-----------2-------------|--------2----------2--------------|
D|-----3----------------------------|-----3----------------------------|
A|----------------------------------|----------------------------------|
E|----------------------------------|----------------------------------|


::Pre Chorus::
[ Tab from: http://www.guitaretab.com/e/emma-roberts/77333.html ]
 A                                    A
 
E|-------------0--------------------|-----------0---------------------|
B|----------------1-----------------|--------------1------------------|
G|----------2---------2-------------|--------2--------2---------------|
D|------2---------------------------|-----2---------------------------|
A|--0-------------------------------|--0------------------------------|
E|----------------------------------|---------------------------------|


  D                                   D
 
E|--------------2-------------------|--------------2-------------------|
B|-----------3-----3----------------|-----------3-----3----------------|
G|--------2-----------2-------------|--------2-----------2-------------|
D|-----0----------------------------|-----0----------------------------|
A|----------------------------------|----------------------------------|
E|----------------------------------|----------------------------------|


  A                                   A
 
E|-------------0--------------------|-----------0---------------------|
B|----------------1-----------------|--------------1------------------|
G|----------2---------2-------------|--------2--------2---------------|
D|------2---------------------------|-----2---------------------------|
A|--0-------------------------------|--0------------------------------|
E|----------------------------------|---------------------------------|


  D                                   D
 
E|------------0---------------------|----------------------------------|
B|---------3-----3------------------|----------------------------------|
G|-----2------------2---------------|--2-------------------------------|
D|--0-------------------------------|--0-------------------------------|
A|----------------------------------|----------------------------------|
E|----------------------------------|----------------------------------|
                                     PM.

::Chorus::
 G                                   D
 
E|-----------3----------------------|-----------2----------------------|
B|--------------3-------------------|--------3-----3-------------------|
G|------------------0---------------|-----2-----------2----------------|
D|--------0-------------------------|--0-------------------------------|
A|-----2----------------------------|----------------------------------|
E|--3-------------------------------|----------------------------------|


 C                                   C
 
E|-----------0----------------------|-----------0----------------------|
B|--------------1-------------------|--------------1-------------------|
G|--------0--------0----------------|--------0---------0---------------|
D|-----2----------------------------|-----2----------------------------|
A|--3-------------------------------|--3-------------------------------|
E|----------------------------------|----------------------------------|
Related for Mexican Wrestler tab
Advertisement will be closed in 10 seconds