Song name
# A B C D E F G H I J K L M N O P Q R S T U V W X Y Z

Emma - Trapped In A Mathcstick Man tab

Help us improve GuitareTab! Take a short survey!
Tabbed by:CoheedANDnofx6
AIM: warxall0thextime

Tuning: Standard

                    ::INTRO::
e|--------------------------------------------------|
B|--------------------------------------------------|
G|---10-------10-------10----9-------9-------9------|
D|------12-12----12-12----12---12-12---12-12---12---|
A|--------------------------------------------------|
E|--------------------------------------------------|
  cont.
e|-------------------------------------|
B|-------------------------------------|
G|---10-------10-------10------9~------|
D|------12-12----12-12----12--12~------|
A|-------------------------------------|
E|-------------------------------------|

                                  ::VERSE::
e|-----------------------------------------------------------------------------|
B|-----------------------------------------------------------------------------|
G|---X-X-X--10-------7------10-------7-------9-------7-------9-------7---------|
D|---X-X-X---x-(4x)--x-(4x)--x-(4x)--x-(4x)--x-(4x)--x-(4x)--x-(4x)--x-(4x)----|
A|---X-X-X---8-------5-------8-------5-------7-------5-------7-------5---------|
E|---X-X-X---------------------------------------------------------------------|
play twice^

                                ::PRE-CHORUS::
e|-------------------------------------------------------------------------------------------|
B|-------------------------------------------------------------------------------------------|
G|------10-10------10-10-10----10-10------10-10-10-----9-9-------9-9-9-----9-9-------9-9-9---|
D|-------x--x-------x--x--x-----x--x-------x--x--x-----x-x-------x-x-x-----x-x-------x-x-x---|
A|-------8--8-------8--8--8-----8--8-------8--8--8-----7-7-------7-7-7-----7-7-------7-7-7---|
E|---0-0------0-0-0---------0-0------0-0-0---------0-0-----0-0-0-------0-0-----0-0-0---------|
P.M. all 0's

                                ::CHORUS::
e|-----------------------------------------------------------|
B|-----------------------------------------------------------|
G|---7-------9-------3---------------------------------------|
D|---x-(8x)--x-(4x)--x-(4x)---0-0-0--0-0-0--0--0-0-0--0-0-0--|
A|---5-------7-------5--------0-0-0--0-0-0--0--0-0-0--0-0-0--|
E|----------------------------0-0-0--0-0-0--0--0-0-0--0-0-0--|
P.M. all 0's

             ::POST-CHORUS::
e|------------------------------------------|
B|------------------------------------------|
G|----8-8-8p7---8p7---8p7---8p7-8p7---------|
D|------------9-----9-----9-----------------|
A|------------------------------------------|
E|------------------------------------------|
P.M.  . .
                ::OUTRO::
e|------------------------------------------|
B|------------------------------------------|
G|------------------------------------------|
D|---2-2--2-2--2-2---0-0--0-0--0-0----------|
A|---2-2--2-2--2-2---0-0--0-0--0-0----------|
E|---2-2--2-2--2-2---0-0--0-0--0-0----------|
P.M. . .  . .  . .   . .  . .  . .
Related for Trapped In A Mathcstick Man tab