Song name
# A B C D E F G H I J K L M N O P Q R S T U V W X Y Z

Emmanuel Moire - Je Fais De Toi Mon Essentiel tab

-------------------------------------------------------------------------
JE FAIS DE TOI MON ESSENTIEL – Emmanuel Moire
-------------------------------------------------------------------------
Tabbed by: Kengus

Standard tuning
Capo on second fret!

INTRO  (repeat this x2 for intro)
Bm#5add5      G          D            Asus2
e|-2----------3----------2p0----------0----------|
B|---3----------3------------3-----0----0--------|
G|-----0---0------0---0--------2----------2---0--|
D|-----------------------0-------0---------------|
A|-2-----2----------------------------0-----0----|
E|------------3-----3----------------------------|

VERSE1 (verse begins same as intro, then another guitar is added)
Bm#5add5      G          D            Asus2
e|-2----------3----------2p0----------0----------|
B|---3----------3------------3-----0----0--------|
G|-----0---0------0---0--------2----------2---0--|  repeat x4
D|-----------------------0-------0---------------|
A|-2-----2----------------------------0-----0----|
E|------------3-----3----------------------------|

Gtr 1 continues with intro pattern x4 while Gtr 2 plays:
e|-2------3------2------0-----|    e|-2-----3-----3p2-----0h2--0--------|
B|---3------3------3------2---|    B|---3-----3-------3--------0--------|
G|-----0------0------2------2-| x3 G|-----0-----0-------2------2--------|
D|----------------------------|    D|-------------0------------2--------|
A|----------------------------|    A|--------------------------0--------|
E|----------------------------|    E|-----------------------------------|

VERSE1
Bm#5add5   G    D
   Je sais ton amour
Asus2        Bm#5add5 G       D
 Je sais l'eau versée sur mon corps
Asus2     Bm#5add5   G     D
 Sentir son cou jour après jour
Asus2       Bm#5add5   G    D           Asus2
 J'ai remonté les tourments pour m'approcher encore
Bm#5add5    G     D     Asus2 
   J'ai ton désir ancré sur le mien
Bm#5add5    G     D      Asus2
   J'ai ton désir ancré à mes chevilles
Bm#5add5  G    D          Asus2
   Viens, rien ne nous retient à rien
Bm#5add5   G          D    Asus2
   Tout ne tient qu'a nous

CHORUS (strum the chords)
           Bm      G    D
Je fais de toi mon essentiel
Asus2        Bm        G      D
  Tu me fais naître parmi les hommes
Asus2        Bm      G    D
  Je fais de toi mon essentiel
Asus2             Bm           G
 Celle que j'aimerais plus que personne
D          Asus2            Bm  G
Si tu veux qu'on s'apprenne
D          Asus2           Bm#5add5...(go straight into intro) 
Si tu veux qu'on s'apprenne

INTERLUDE (repeat intro)
Bm#5add5      G          D            Asus2
e|-2----------3----------2p0----------0----------|
B|---3----------3------------3-----0----0--------|
G|-----0---0------0---0--------2----------2---0--|
D|-----------------------0-------0---------------|
A|-2-----2----------------------------0-----0----|
E|------------3-----3----------------------------|

VERSE2
Bm#5add5      G          D            Asus2
e|-2----------3----------2p0----------0----------|
B|---3----------3------------3-----0----0--------|
G|-----0---0------0---0--------2----------2---0--|  repeat x4
D|-----------------------0-------0---------------|
A|-2-----2----------------------------0-----0----|
E|------------3-----3----------------------------|

Gtr 1 continues with intro pattern x4 while Gtr 2 plays:
e|-2------3------2p0-------0--------|
B|---3------3--------3---0---2------|
G|-----0------0--------2-------2p0--|
D|----------------------------------|
A|----------------------------------|
E|----------------------------------|

VERSE2
Bm#5add5   G     D
   Tu sais mon amour
Asus2       Bm#5add5    G     D
  Tu sais les mots sous mes silences
Asus2        Bm#5add5         G      D
 Ceux qu'ils avouent, couvrent et découvrent
Asus2         Bm#5add5   G
 J'ai à t'offrir des croyances
D         Asus
Pour conjurer l'absence
Bm#5add5  G     D     Asus2
  J'ai l'avenir gravé dans ta main
Bm#5add5  G     D          Asus2
  J'ai l'avenir tracé comme tu l'écris
Bm#5add5  G   D         Asus2
  Tiens, rien ne nous emmènes plus loin
Bm#5add5      G     D      Asus2
  Qu'un geste qui revient

CHORUS
           Bm      G    D
Je fais de toi mon essentiel
Asus2        Bm        G      D
  Tu me fais naître parmi les hommes
Asus2        Bm      G    D
  Je fais de toi mon essentiel
Asus2             Bm           G
 Celle que j'aimerais plus que personne
D          Asus2
Si tu veux qu'on s'apprenne
Bm          G
Si tu veux qu'on s'apprenne
D          Asus2            Bm G  D  Asus2
Si tu veux qu'on s'apprenne ee ee ee ee
                              Bm G  D  Asus2
(Si tu veux qu'on s'apprenne) ee ee ee ee...
Bm  G     D          Asus2     Bm
      Je ferai de toi mon essentiel
G         D
Mon essentiel
           Asus2       Bm    G
Si tu veux qu'on s'apprenne
D            Asus2   (Bm)
Qu'on s'appartienne

=========================================================================
Comment, rate, appreciate!
Tap to rate this tab
# A B C D E F G H I J K L M N O P Q R S T U V W X Y Z