Song name
# A B C D E F G H I J K L M N O P Q R S T U V W X Y Z

Emmanuel Worship - Jesus Thing tab

----------------------------------------------------------------------------
			 Jesus Thing - Emmanuel Worship
----------------------------------------------------------------------------
Hey guys, heres the next song by Emmanuel Worship, it has to be the most basic song i've 
tabbed up!!! Great for beginners!
Tabbed by: MyChemGuitarist
Email: sk8er_freak13@hotmail.com

Tuning:
Intro
e|-------------------------------------------------------------------------|
B|-------------------------------------------------------------------------|
G|-------------------------------------------------------------------------|
D|--5-5--55---------------2-2--22------------------------------------------|
A|--3-3--33----5-5--55----0-0--00----3-3--33-------------------------------|
E|-------------3-3--33---------------1-1--33-------------------------------|

My life, is now a jesus thing, i've been, captured by the king of kings...
Verse 1
e|-------------------------------------------------------------------------|
B|-------------------------------------------------------------------------|
G|-------------------------------------------------------------------------|
D|--5-5--55---------------2-2--22------------------------------------------|
A|--3-3--33----5-5--55----0-0--00----3-3--33-------------------------------|
E|-------------3-3--33---------------1-1--33-------------------------------|
The life i used to lead is not the life for me, the old has passed....

Chorus
e|-------------------------------------------------------------------------|
B|-------------------------------------------------------------------------|
G|-------------------------------------------------------------------------|
D|--5-5--55---------------2-2--22------------------------------------------|
A|--3-3--33----5-5--55----0-0--00----3-3--33-------------------------------|
E|-------------3-3--33---------------1-1--33-------------------------------|
My life, is now a jesus thing....

| /  slide up
| \  slide down
| h  hammer-on
| p  pull-off
| ~  vibrato
| +  harmonic
| x  Mute note
===============================================================================
Tap to rate this tab
 
# A B C D E F G H I J K L M N O P Q R S T U V W X Y Z