Emmas Imagination - Focus tab

-------------------------------------------------------------------------------
			     Focus- Emma’s Imagination
                       http://www.emmas-imagination.co.uk/
-------------------------------------------------------------------------------
Tabbed by : Holly379

Tuning:Standard

Intro
e|-------------------------------------------------------------------------|
B|-------------0-------------------0------------------0------------------0-|
G|----------2--------2-----------2-------2----------2-------2----------2---|
D|-------0--------------0-----0------------0-----0------------0-----0------|
A|----2-----------2--------2----------2------------------------------------|
E|--------------------------------------------3----------3-------3---------|

e|-------------|
B|-------------|
G|----2--------|  x2
D|-------0-----|
A|-------------|
E|-3--------3--|

Verse 1
e|-------------------------------------------------------------------------|
B|-------------0-------------------0------------------0------------------0-|
G|----------2--------2-----------2-------2----------2-------2----------2---|
D|-------0--------------0-----0------------0-----0------------0-----0------|
A|----2-----------2--------2----------2------------------------------------|
E|-------------------------------------------3-----------3-------3---------|

e|----------|
B|----------|
G|----2-----| x4
D|-------0--|
A|----------|
E|-3--------|

Pre-chorus

e|-------------------------------------------------------------------------|
B|-------------0-------------------0------------------0------------------0-|
G|----------2--------2-----------2-------2----------2-------2----------2---|
D|-------0--------------0-----0------------0-----0------------0-----0------|
A|--------------------------------------------2---------2--------2---------|
E|----0-----------0--------3----------3------------------------------------|

e|----------------------------------|
B|-------------------0--------------|
G|-----2----------2--------2--------|
D|--------0----0--------------0-----|
A|--2-------------------------------|
E|----------0-----------0--------3--|

Chorus

e|-------------------------------------------------------------------------|
B|-------------0-------------------0------------------0------------------0-|
G|----------2--------2-----------2-------2----------2-------2----------2---|
D|-------0--------------0-----0------------0-----0------------0-----0------|
A|----2-----------2--------2----------2------------------------------------|
E|-------------------------------------------3-----------3-------3---------|

e|----------|
B|----------|
G|----2-----| x2
D|-------0--|
A|----------|
E|-3--------|

Bridge
e|-------------------------------------------------------------------------|
B|-------------0-------------------0------------------0------------------0-|
G|----------2--------2-----------2-------2----------2-------2----------2---|
D|-------0--------------0-----0------------0-----0------------0-----0------|
A|----2-----------2--------2----------2------------------------------------|
E|--------------------------------------------3----------3-------3---------|

e|----------|
B|----------|
G|----2-----| x2
D|-------0--|
A|----------|
E|-3--------|

Verse 2

e|-------------------------------------------------------------------------|
B|-------------0-------------------0------------------0------------------0-|
G|----------2--------2-----------2-------2----------2-------2----------2---|
D|-------0--------------0-----0------------0-----0------------0-----0------|
A|----2-----------2--------2----------2------------------------------------|
E|-------------------------------------------3-----------3-------3---------|

e|----------|
B|----------|
G|----2-----| x3
D|-------0--|
A|----------|
E|-3--------|

e|-------------------------------------------------------------------------|
B|-------------0-------------------0------------------0------------------0-|
G|----------2--------2-----------2-------2----------2-------2----------2---|
D|-------0--------------0-----0------------0-----0------------0-----0------|
A|----2-----------2--------4----------4------------------------------------|
E|-------------------------------------------3-----------3-------3---------|

e|----------|
B|----------|
G|----2-----| x4
D|-------0--|
A|----------|
E|-3--------|

Pre-chorus

e|-------------------------------------------------------------------------|
B|-------------0-------------------0------------------0------------------0-|
G|----------2--------2-----------2-------2----------2-------2----------2---|
D|-------0--------------0-----0------------0-----0------------0-----0------|
A|--------------------------------------------2---------2--------2---------|
E|----0-----------0--------3----------3------------------------------------|

e|----------------------------------|
B|-------------------0--------------|
G|-----2----------2--------2--------|
D|--------0----0--------------0-----|
A|--2-------------------------------|
E|----------0-----------0--------3--|

Chorus

e|-------------------------------------------------------------------------|
B|-------------0-------------------0------------------0------------------0-|
G|----------2--------2-----------2-------2----------2-------2----------2---|
D|-------0--------------0-----0------------0-----0------------0-----0------|
A|----2-----------2--------2----------2------------------------------------|
E|-------------------------------------------3-----------3-------3---------|

e|----------|
B|----------|
G|----2-----|
D|-------0--|
A|----------|
E|-3--------|

Outro
e|-------------------------------------------------------------------------|
B|-------------0-------------------0------------------0------------------0-|
G|----------2--------2-----------2-------2----------2-------2----------2---|
D|-------0--------------0-----0------------0-----0------------0-----0------|
A|--------------------------------------------2---------2--------2---------|
E|----0-----------0--------3----------3------------------------------------|

e|----------------------------------|
B|-------------------0--------------|
G|-----2----------2--------2--------|
D|--------0----0--------------0-----|
A|--2-------------------------------|
E|----------0-----------0--------3--|



************************************

| /   slide up
| \   slide down
| h   hammer-on
| p   pull-off
| ~   vibrato
| +   harmonic
| x   Mute note
| b   Bend
| pb  Pre-bend
| br  Bend release
| pbr Pre-bend release
| brb Bend release bend

************************************
Tap to rate this tab
 
# A B C D E F G H I J K L M N O P Q R S T U V W X Y Z