Song name
# A B C D E F G H I J K L M N O P Q R S T U V W X Y Z

Emmas Imagination - This Day tab

BY: LOUIE SEVILLA

intro
 d----2----2----2----2----2----2----2----2-|
 A----3----3----3----3----3----3----3----3-|
 F-----------------------------------------|
 C--0----0----0----0----0----0----0----0---|
 G-----------------------------------------|
 D-----------------------------------------|

Verse 1
 d----2----2----2----2----3----3----3----3-|
 A----3----3----3----3----3----3----3----3-|
 F-----------------------------------------|
 C--0----0----0----0-----------------------|
 G-----------------------------------------|
 D----------------------3----3----3----3---|
    Sipping summer through the air,
                         Blows over the green to 
 
 d----2----2----2----2----2----2----2----2-|
 A----3----3----3----3----3----3----3----3-|
 F-----------------------------------------|
 C--0----0----0----0----0----0----0----0---|
 G-----------------------------------------|
 D-----------------------------------------|
    Me..

 d----2----2----2----2----3----3----3----3-|
 A----3----3----3----3----3----3----3----3-|
 F-----------------------------------------|
 C--0----0----0----0-----------------------|
 G-----------------------------------------|
 D----------------------3----3----3----3---|
    Leave behind spider lines,
                        Underneath the tree where I was 

 d----2----2----2----2----2----2----2----2-|
 A----3----3----3----3----3----3----3----3-|
 F-----------------------------------------|
 C--0----0----0----0----0----0----0----0---|
 G-----------------------------------------|
 D-----------------------------------------|
    Sitting..

Pre Chorus
 d-----------------------------------------|
 A----3----3----3----3----3----3----3----3-|
 F----4----4----4----4----4----4----4----4-|
 C-----------------------------------------|
 G--2----2----2----2----0----0----0----0---|
 D-----------------------------------------|
    Finger trailing through the grass
                        Gently kiss my thoughts as they 

 d----3----3----3----3----3----3----3----3-|
 A----3----3----3----3----3----3----3----3-|
 F-----------------------------------------|
 C-----------------------------------------|
 G-----------------------------------------|
 D--3----3----3----3----3----3----3----3---|
          Go..
 
 d-----------------------------------------|
 A----3----3----3----3----3----3----3----3-|
 F----4----4----4----4----4----4----4----4-|
 C-----------------------------------------|
 G--2----2----2----2----0----0----0----0---|
 D-----------------------------------------|
    My feet are weightless carried on silver notes

 d----3----3----3----3--3---|
 A----3----3----3----3--3---|
 F--------------------------|
 C--------------------------|
 G--------------------------|
 D--3----3----3----3----3---|
    Coming up from daffodils   
                         Dance beside the road and

Chorus 1
 d----2----2----2----2---------------------|
 A----3----3----3----3----3----3----3----3-|
 F------------------------4----4----4----4-|
 C--0----0----0----0-----------------------|
 G-----------------------0----0----0----0--|
 D-----------------------------------------|
    This day is mine    this day is mine

 d----3----3----3----3--3---|
 A----3----3----3----3--3---|
 F--------------------------|
 C--------------------------|
 G--------------------------|
 D--3----3----3----3----3---|

Verse 2
 d----2----2----2----2----3----3----3----3-|
 A----3----3----3----3----3----3----3----3-|
 F-----------------------------------------|
 C--0----0----0----0-----------------------|
 G-----------------------------------------|
 D----------------------3----3----3----3---|
    Cartwheel leaves pass my feet,
                        Tickling the ground as they 

 d----2----2----2----2----2----2----2----2-|
 A----3----3----3----3----3----3----3----3-|
 F-----------------------------------------|
 C--0----0----0----0----0----0----0----0---|
 G-----------------------------------------|
 D-----------------------------------------|
          Go..

 d----2----2----2----2----3----3----3----3-|
 A----3----3----3----3----3----3----3----3-|
 F-----------------------------------------|
 C--0----0----0----0-----------------------|
 G-----------------------------------------|
 D----------------------3----3----3----3---|
    Cardigan on my shoulders
                        Takin in the colours of the 

 d----2----2----2----2----2----2----2----2-|
 A----3----3----3----3----3----3----3----3-|
 F-----------------------------------------|
 C--0----0----0----0----0----0----0----0---|
 G-----------------------------------------|
 D-----------------------------------------|
    Park..

Pre Chorus
 d-----------------------------------------|
 A----3----3----3----3----3----3----3----3-|
 F----4----4----4----4----4----4----4----4-|
 C-----------------------------------------|
 G--2----2----2----2----0----0----0----0---|
 D-----------------------------------------|
    I've got the feeling of that first 
                        Stretch   in the morning going 
 d----3----3----3----3----3----3----3----3-|
 A----3----3----3----3----3----3----3----3-|
 F-----------------------------------------|
 C-----------------------------------------|
 G-----------------------------------------|
 D--3----3----3----3----3----3----3----3---|
    on and on and on

 d-----------------------------------------|
 A----3----3----3----3----3----3----3----3-|
 F----4----4----4----4----4----4----4----4-|
 C-----------------------------------------|
 G--2----2----2----2----0----0----0----0---|
 D-----------------------------------------|
    Got my hallo swinging 
                         on my finger   For frisbee 

 d----3----3----3----3--3---|
 A----3----3----3----3--3---|
 F--------------------------|
 C--------------------------|
 G--------------------------|
 D--3----3----3----3----3---|
     with the sun..

Chorus 2
 d-----------------------------------------|
 A----3----3----3----3----5----5----5----5-|
 F----4----4----4----4----6----6----6----6-|
 C-----------------------------------------|
 G--2----2----2----2----4----4----4----4---|
 D-----------------------------------------|
    This day is mine

 d-----------------------------------------|
 A----3----3----3----3----3----3----3----3-|
 F----4----4----4----4----4----4----4----4-|
 C-----------------------------------------|
 G-----------------------------------------|
 D---3---3----3----3----3----3----3----3---|

 d-----------------------------------------|
 A----3----3----3----3----5----5----5----5-|
 F----4----4----4----4----6----6----6----6-|
 C-----------------------------------------|
 G--2----2----2----2----4----4----4----4---|
 D-----------------------------------------|
    This day is mine 

 d-----------------------------------------|
 A----3----3----3----3----3----3----3--3---|
 F----4----4----4----4----4----4----4--4---|
 C-----------------------------------------|
 G-----------------------------------------|
 D---3---3----3----3----3----3----3----3---|

Outro
 d----2----2----2----2----3----3----3----3-|
 A----3----3----3----3----3----3----3----3-|
 F-----------------------------------------|
 C--0----0----0----0-----------------------|
 G-----------------------------------------|
 D----------------------3----3----3----3---|
   And I want to share it, 

 d----2----2----2----2----3----3----3----3-|
 A----3----3----3----3----3----3----3----3-|
 F-----------------------------------------|
 C--0----0----0----0-----------------------|
 G-----------------------------------------|
 D----------------------3----3----3----3---|
   want to share it

 d----2----2----2----2----3----3----3----3-|
 A----3----3----3----3----3----3----3----3-|
 F-----------------------------------------|
 C--0----0----0----0-----------------------|
 G-----------------------------------------|
 D----------------------3----3----3----3---|
   Want to share it 

 d----2----Let Ring------------------------|
 A----3------------------------------------|
 F----2------------------------------------|
 C-----------------------------------------|
 G-----------------------------------------|
 D-----------------------------------------|
   with    you...
Tap to rate this tab
# A B C D E F G H I J K L M N O P Q R S T U V W X Y Z