Song name
# A B C D E F G H I J K L M N O P Q R S T U V W X Y Z

Emmure - Young Rich And Out Of Control tab

EMMURE
YOUNG RICH AND OUT OF CONTROL
FROM THE VICTORY RECORDS RELEASE 'THE RESPECT ISSUE'


Yay first tab! This song isn't tricky at all, save for getting tuned so ridiculously 
If you have any comments please hit up my profile.


By the way it's in Drop A# [A#,F,A#,D#,G,C], the x3 is how many times to play, not muted 
then 3.


Intro-There's no more love, trust respect or loyalty. PRODUCT OF MY SURROUNDINGS!

|---------------------------------------------------------------------------|
|---------------------------------------------------------------------------|
|---------------------------------------------------------------------------|
|---------------------------------------------------------------------------|
|000000-000000-[dive here]--------------------------------------------------|
|000000-000000--------------------------------------------------------------|
 ****** *****

|---------------------------------------------------------------------------|
|---------------------------------------------------------------------------|
|---------------------------------------------------------------------------|
|---------------------------------------------------------------------------|
|0-00-0-0-000-00-x3-0-00-0-0-000--------------------------------------------|
|0-00-0-0-000-00----0-00-0-0-000--------------------------------------------|
 * ** * * *** **    * ** * * ***


Lead plays this over main groove now

|---------------------------------------------------------------------------|
|---------------------------------------------------------------------------|
|---------------------------------------------------------------------------|
|---------------------------------------------------------------------------|
|------------------x3-------------------------------------------------------|
|0-00-0-0-000-00---------0-00-0-0-000---------------------------------------|
   *      **               *      **


Both guitars go back to grooving this

|---------------------------------------------------------------------------|
|---------------------------------------------------------------------------|
|---------------------------------------------------------------------------|
|---------------------------------------------------------------------------|
|0-00-0-00-000-000000--00-000-0-000--000-0-0--------------------------------|
|0-00-0-00-000-000000--00-000-0-000--000-0-0--------------------------------|
 * ** * ** *** ******  ** *** * ***  *** *
|---------------------------------------------------------------------------|
|---------------------------------------------------------------------------|
|---------------------------------------------------------------------------|
|---------------------------------------------------------------------------|
|0-00-000--------x3--0-00-000-----00000-------------------------------------|
|0-00-000-000-00-----0-00-000-000-000000------------------------------------|
   **  *               **  *      *****
Tap to rate this tab
 
# A B C D E F G H I J K L M N O P Q R S T U V W X Y Z