Song name
# A B C D E F G H I J K L M N O P Q R S T U V W X Y Z

Emmure - A Ticket To The Paralyzer tab

Hey Guys this is Emmure's 'A Ticket To the Paralyzer".
It's a fun and easy song to play.
It's also in Drop A#, which is my personal favorite tuning.
Keep it real and remember...keep it heavy.
(This is also for all the kids who don't have Guitar Pro...like me.)


C----------------------------|
G----------------------------|
D#---------------------------|
A#---------------------------|
F--0-0-00000-0-0-0-0000-00---|
A#-1-1-11111-1-1-1-1111-11-5-|

C----------------------------|
G----------------------------|
D#---------------------------|
A#---------------------------|
F--0000-0-000-0-0--00-00--00-|
A#-1111-1-111-1-1--11-11--11-|

GO!

C----------------------------|
G----------------------------|
D#---------------------------|
A#---------------------------|
F--0-0-00000-0-0-0-0000-00---|
A#-1-1-11111-1-1-1-1111-11-5-|

C----------------------------|
G----------------------------|
D#---------------------------|
A#---------------------------|
F--0000-0-000-0-0--00-00--00-|
A#-1111-1-111-1-1--11-11--11-|

C---
G---
D#--
A#-0
F--0
A#-1  <---bend down

C----------------------------|
G----------------------------|
D#---------------------------|
A#---------------------------|
F--1-1-11111-1-1-1-1111-11---|
A#-0-0-00000-0-0-0-0000-00-0-|

C----------------------------|
G----------------------------|
D#---------------------------|
A#---------------------------|
F--1111-1-111-1-1--11-11--11-|
A#-0000-0-000-0-0--00-00--00-|
Tap to rate this tab
# A B C D E F G H I J K L M N O P Q R S T U V W X Y Z