Song name
# A B C D E F G H I J K L M N O P Q R S T U V W X Y Z

Emmure - Lessons From Nichole tab

-------------------------------------------------------------------------------
			     Lessons from Nichole/Emmure
-------------------------------------------------------------------------------
Tabbed by:Henry18
Email:2008hjeb@gmail.com

Tuning:drop A
I noticed that theres no tab for this so i gave it a go, tell me what you think
Intro 
guitar 1 and guitar 2 play the same intro
e|---------------------------------------------------------------------------|
B|---------------------------------------------------------------------------|
G|---------------------------------------------------------------------------|
D|----------10--------------------------------10-------10--------------------|
A|-875--------87--------------------------------87-------87------------------|
E|0---0-0000----0-0000-7-888-0-0000-7-888-0-0000----0-0000----0-0000---------|
Intro 2
Guitar 1 plays the intro while guitar 2 plays this three times
e|---------------------------------------------------------------------------|
B|---------------------------------------------------------------------------|
G|---------------------------------------------------------------------------|
D|----10---------------------------------------------------------------------|
A|5/8-8----------------------------------------------------------------------|
E|----8----------------------------------------------------------------------|


************************************

| /   slide up
| \   slide down
| h   hammer-on
| p   pull-off
| ~   vibrato
| +   harmonic
| x   Mute note
| b   Bend
| pb  Pre-bend
| br  Bend release
| pbr Pre-bend release
| brb Bend release bend

************************************
Tap to rate this tab
 
# A B C D E F G H I J K L M N O P Q R S T U V W X Y Z