Song name
# A B C D E F G H I J K L M N O P Q R S T U V W X Y Z

Emmure - Mdma tab

INTRO

B--------------------------------------------------------------|
F#-------------------------------------------------------------|
D--------------------------------------------------------------|
A----11-----9--------------11------9---------------------------|
E-------------------9-------------------------9----------------|
A--------------------------------------------------------------|

RIFF1

B-----------------------------------------------------------------|
F#----------------------------------------------------------------|
D-11---11-11------------------------------------------------------|
A-11---11-11------------------------------------------------------|
E-9-----9--9------------------------------------------------------|
A-0--0--0--0------------------------------------------------------|


RIFF2



B-----------------------------------------------------------------|
F#----------------------------------------------------------------|
D-11---11-11------------------------------------------------------|
A-11---11-11------------------------------------------------------|
E-9-----9--9------------------------------------------------------|
A-9---9-9--9------------------------------------------------------|


RIFF 3



B---------------------------------------------------------------|
F#--------------------------------------------------------------|
D---------------------------------------------------------------|
A---------------------------------------------------------------|
E------------------5^--------------------- 5^-------------------|
A-0--0--0000-------------0-0-0000-------------------------------|


RIFF 4



B--------------------------------------------------------------|
F#-------------------------------------------------------------|
D--------------------------------------------------------------|
A--------------------------------------------------------------|
E-0--0--0--0--0--0--0-----4--4--4--4--4--4--4------------------|
A-0--0--0--0--0--0--0-----4--4--4--4--4--4--4------------------|
Tap to rate this tab
 
# A B C D E F G H I J K L M N O P Q R S T U V W X Y Z