Song name
# A B C D E F G H I J K L M N O P Q R S T U V W X Y Z

Emmure - Mdma tab

I based these tabs off of the previously posted tabs
http://tabs.ultimate-guitar.com/e/emmure/mdma_tab.htm

Any comments or corrections let me know @ Derk.Maier@gmail.com
Thanks Emmure for kicking ass.



Drop A - or any drop tuning
(A E A D F# B)

===========================================
===========================================
INTRO

GUITAR 1
---------------|
--2-----2------| x4
----4-----4----|
------4-----4--|
---------------|
---------------|

1 guitar                 2 guitars
----------------------|----------------------|
----------------------| ---------------------| 
--11------11-11-11-11-|--11------11-11-11-11-|
--11------11-11-11-11-|--11------11-11-11-11-|
--9---0---9--9--9--9--|--9---0---9--9--9--9--|
--9---0---9--9--9--9--|--9---0---9--9--9--9--|

===========================================
===========================================
Chorus
  
GUITAR 1                                                  
---------------|---------------|--------------|-------------------|
---------------|---------------|--------------|-------------------|
--11----11--11-|--11----11--11-|-11---11-11---|--11----11---------| x2
---------------|---------------|-11---11-11---|-------------------|
--9-----9---9--|--9-----9---9--|-9-----9--9---|--9-----9----------|
--0--0--0---0--|--0--0--0---0--|-9---9-9--9---|--0--0--0----------|
All the notes                                              ^Pause^
aren't in each individual measure
mess around with it you'll find it

---------------|---------------|--------------|---------------|
---------------|---------------|--------------|---------------|
--11----11--11-|--11----11--11-|-11---11-11---|--11----11--11-| x2
---------------|---------------|-11---11-11---|---------------|
--9-----9---9--|--9-----9---9--|-9-----9--9---|--9-----9---9--|
--0--0--0---0--|--0--0--0---0--|-9---9-9--9---|--0--0--0---0--|


GUITAR 2
---------------|---------------|--------------|---------------|
-7-------------|-7-------------|--------------|---------------| x2
---------------|------------6--|--------------|---------------|
---------------|---------------|--4-----------|---------------|
---------------|---------------|--------------|---------------|
---------------|---------------|--------------|---------------|

---------------|
--2-----2------| x8
----4-----4----|
------4-----4--|
---------------|
---------------|

===========================================
===========================================
Bridge 1

---------------------|---------------------|---------------------|
---------------------|---------------------|---------------------|
---------------------|---------------------|---------------------|
---------------------|---------------------|---------------------|
-----------------5^--|-----------------5^--|-----------------5^--|
--0-0-0000-0-0-2-----|--0-0-0000-0-0-2-----|--0-0-0000-0-0-2-----|
      ....                  ....                  ....            

---------------------|---------------------|---------------------|
---------------------|---------------------|---------------------|
---------------------|---------------------|---------------------|
---------------------|---------------------|---------------------|
-----------------7^--|-----------------7^--|-----------------5^--|
--4-4-4444-4-4-5-----|--4-4-4444-4-4-5-----|--0-0-0000-0-0-2-----|
      ....                  ....                  ....            

---------------------|
---------------------|
---------------------|
---------------------|
---------------------|
--0-0-0000-0-0--11\--|
      ....             

Palm Mute All
---------|---------|---------|-----------|---------|---------|---------|-----------|
---------|---------|---------|-----------|---------|---------|---------|-----------|
---------|---------|---------|-----------|---------|---------|---------|-----------|
---------|---------|---------|-----------|---------|---------|---------|-----------|
-0-0-0-0-|-0-0-0-0-|-0-0-0-0-|-0000-0000-|-4-4-4-4-|-4-4-4-4-|-4-4-4-4-|-----------|
-0-0-0-0-|-0-0-0-0-|-0-0-0-0-|-0000-0000-|-4-4-4-4-|-4-4-4-4-|-4-4-4-4-|-----------|

===========================================
Chorus (Same as before)
   
GUITAR 1
---------------|---------------|--------------|-------------------|
---------------|---------------|--------------|-------------------|
--11----11--11-|--11----11--11-|-11---11-11---|--11----11---------| 
---------------|---------------|-11---11-11---|-------------------|
--9-----9---9--|--9-----9---9--|-9-----9--9---|--9-----9----------|
--0--0--0---0--|--0--0--0---0--|-9---9-9--9---|--0--0--0----------|

---------------|---------------|--------------|-------------------|
---------------|---------------|--------------|-------------------|
--11----11--11-|--11----11--11-|-11---11-11---|--11----11---------| 
---------------|---------------|-11---11-11---|-------------------|
--9-----9---9--|--9-----9---9--|-9-----9--9---|--9-----9----00-00-|
--0--0--0---0--|--0--0--0---0--|-9---9-9--9---|--0--0--0----00-00-|

GUITAR 2
---------------|---------------|--------------|---------------|
-7-------------|-7-------------|--------------|---------------| x2
---------------|------------6--|--------------|---------------|
---------------|---------------|--4-----------|---------------|
---------------|---------------|--------------|---------------|
---------------|---------------|--------------|---------------|

===========================================

---------------|---------------|---------------|
---------------|---------------|---------------|
---------------|---------------|---------------|
-0~~~~~~~~~~~~~|-0~~~~~~~~~~~~~|///////////////|
-0~~~~~~~~~~~~~|-0~~~~~~~~~~~~~|//Pick Slide///|
-0~~~~~~~~~~~~~|-0~~~~~~~~~~~~~|///////////////|

===========================================
Bridge 2

GUITAR 1
---------------------|
----2-------2--------| x6
------4-------4------|
--------4-------4----|
---------------------|
---------------------|

GUITAR 2
---------------|---------------|---------------|---------------|
---------------|---------------|---------------|---------------|
---------------|---------------|---------------|---------------|
-0~~~~~~~~~~~~~|-0~~~~~~~~~~~~~|-4~~~~~~~~~~~~~|-0~~~~~~~~~~~~~|
-0~~~~~~~~~~~~~|-0~~~~~~~~~~~~~|-4~~~~~~~~~~~~~|-0~~~~~~~~~~~~~|
-0~~~~~~~~~~~~~|-0~~~~~~~~~~~~~|-4~~~~~~~~~~~~~|-0~~~~~~~~~~~~~|

---------------|---------------|
---------------|---------------|
---------------|---------------|
-0~~~~~~~~~~~~~|-0~~~~~~~~~~~~~|
-0~~~~~~~~~~~~~|-0~~~~~~~~~~~~~|
-0~~~~~~~~~~~~~|-0~~~~~~~~~~~~~|

===========================================
Chorus (Same as before)
   
GUITAR 1
---------------|---------------|--------------|---------------|
---------------|---------------|--------------|---------------|
--11----11--11-|--11----11--11-|-11---11-11---|--11----11--11-|
---------------|---------------|-11---11-11---|---------------|
--9-----9---9--|--9-----9---9--|-9-----9--9---|--9-----9---9--|
--0--0--0---0--|--0--0--0---0--|-9---9-9--9---|--0--0--0---0--|

---------------|--------------|---------------|---------------|
---------------|--------------|---------------|---------------|
--11----11--11-|-11---11-11---|---------------|---------------|
---------------|-11---11-11---|---------------|---------------|
--9-----9---9--|-9-----9--9---|---------------|---------------|
--0--0--0---0--|-9---9-9--9---|---------------|---------------|

GUITAR 2
---------------|---------------|--------------|---------------|
-7-------------|-7-------------|--------------|---------------| x4
---------------|------------6--|--------------|---------------|
---------------|---------------|--4-----------|---------------|
---------------|---------------|--------------|---------------|
---------------|---------------|--------------|---------------|
Tap to rate this tab
# A B C D E F G H I J K L M N O P Q R S T U V W X Y Z