Emo Side Project - How Memory Works tab

Tuning: EADGBe (Standard)
Capo 4


Intro/Verse
e|------------------------------0--0-----------------0---0---------------|
B|----0--------------0----------0--0-----------------0---0---------------|
G|----------0--------------0----0--0----0h2p0--------0---2---------------|
D|-------2--------------0-------2--2----------0h2p0--2---x---------------|
A|--0------------2--------------3--3-----------------3---3---------------|
E|-----------------------------------------------------------------------|

e|------------------------------0--0-----------------0---0---------------|
B|----0--------------0----------0--0-----------------0---0---------------|
G|----------0--------------0----0--0----0h2p0--------0---0---------------|
D|-------2--------------0-------2--2----------0h2p0--2---x---------------|
A|--0------------2--------------3--3-----------------3---2---------------|
E|-------------------------------------------------------x---------------|

Chorus
e|--0------0------0------0--------|
B|--0------0------0------0--------|
G|--0------0------0------0--------|
D|--2------0------2------4--------|
A|--2------2------3------5--------|
E|--0------3------x------x--------|

Bridge
e|--------------------------------------|
B|-----0-------0-------0--------0-------|
G|--------4------4--------4--------4----|
D|-----------2---------------2--------x2|
A|--3---------------3-------------------|
E|--------------------------------------|

e|--------------------------------------|
B|-----0-------0-------0--------0-------|
G|--------4------4--------4--------4----|
D|-----------2---------------2--------x2|
A|--0---------------0-------------------|
E|--------------------------------------|


e|--------------------------------------|
B|-----0-------0-------0--------0-------|
G|--------4------4--------4--------4----|
D|-----------2---------------2--------x2|
A|--------------------------------------|
E|--3---------------3-------------------|

e|--------------------------------------|
B|-----0-------0-------0--------0-------|
G|--------4------4--------4--------4----|
D|-----------2---------------2--------x2|
A|--------------------------------------|
E|--0---------------0-------------------|
Tap to rate this tab
 
# A B C D E F G H I J K L M N O P Q R S T U V W X Y Z