Song name
# A B C D E F G H I J K L M N O P Q R S T U V W X Y Z

Emo Side Project - Natural Selectoin tab

Tuning: EADGAe
Capo 1

Intro/Verse
e|-----------------------------------------------------------------------|
A|------0-----0---------0-----0-----------0-----0-------0------0---------|
G|--------0-----0---------0-----0-----------0-----0-------0-------0------|
D|----------0---------------0------x2---------0--------------0-------x2--|
A|-----------------------------------------------------------------------|
E|--7----------------7------------------3------------3-------------------|

Chorus
e|-----------------------------------------------------------------------|
A|------0-----0---------0-----0-----------0-----0-------0------0---------|
G|--------0-----0---------0-----0-----------0-----0-------0-------0------|
D|----------0---------------0------x2---------0--------------0-------x2--|
A|-----------------------------------------------------------------------|
E|--5----------------5------------------3------------3-------------------|

e|-----------------------------------------------------------------------|
A|------0-----0---------0-----0-----------0-----0-------0------0---------|
G|--------0-----0---------0-----0-----------0-----0-------0-------0------|
D|----------0---------------0------x2---------0--------------0-------x2--|
A|-----------------------------------------------------------------------|
E|--1----------------1------------------0------------0-------------------|
Tap to rate this tab
 
# A B C D E F G H I J K L M N O P Q R S T U V W X Y Z