Emo Side Project - Two Little Crayons Fell In Love tab

Two Little Crayons Fell In Love

Standard Tuning
Capo on 2nd Fret
 
Verse/Intro/End (pick these chords then play them for the second verse)
e|--3---3---3----3----|
B|--3---3---3----3----|
G|--0---2---0----2----|
D|--0---0---2----0----|
A|--x---x---2----x----|
E|--3---2---0----2----|

at the end it goes:
e|--3--3--3-----|
B|--3--3--3-----|
G|--0--2--0-----|
D|--0--0--2-----|
A|--x--x--x-----|
E|--3--3--3-----|

Chorus/Solo part
e|--3---0----3----3----|
B|--3---3----3----3----|
G|--0---2----0----0----|
D|--2---0----0----2----|
A|--2---x----x----x----|
E|--0---2----3----3----|
Tap to rate this tab
 
# A B C D E F G H I J K L M N O P Q R S T U V W X Y Z