Song name
# A B C D E F G H I J K L M N O P Q R S T U V W X Y Z

Emo Side Project - Hey Mr Dinosaur tab

Standard Tuning

Capo on the 2nd Fret

Verse (repeat a lot)
e|--0--0--3-|
B|--3--3--3-|
G|--2--2--2-|
D|--0--0--0-|
A|--0--x--x-|
E|--x--3--3-|

Chorus
e|--0---0-----|
B|--3---3-----|
G|--2---2-----|
D|--0---0-----|
A|--x---0-----|
E|--3---x-----|

Bridge
e|--3----0----0---3--|
B|--3----3----3---3--|
G|--0----2----2---2--|
D|--2----0----0---0--|
A|--2----x----x---x--|
E|--0----2----3---3--|

then it switches to
e|--3----0----0---0--|
B|--3----3----3---3--|
G|--0----2----2---2--|
D|--2----0----0---0--|
A|--2----x----x---x--|
E|--0----2----3---2--|
Tap to rate this tab
 
# A B C D E F G H I J K L M N O P Q R S T U V W X Y Z