Song name
# A B C D E F G H I J K L M N O P Q R S T U V W X Y Z

Emoswa - Strings Of Love tab

Here is "Strings Of Love" tab by the indianapolis based band EMOSWA

Key
~=Hold

Intro 2x
e---------------------------------------------|
B---------------------------------------------|
G---0---0-------------------------------------|
D--7-7-7-7--0---0-----7---7-----0---4---------|
A-5---5----7-7-7-7---9-9-9-9---5-5-5----------|
E---------5---5-----7---7-----3---3-----------|

Verse 2x
e------------------------------------------------------|
B------------------------------------------------------|
G---0---0---0---0--------------------------------------|
D--7-7-7-7-7-7-7-7----0---0---0---0-----7---7---7---7--|
A-5---5---5---5------7-7-7-7-7-7-7-7---9-9-9-9-9-9-9-9-|
E-------------------5---5---5---5-----7---7---7---7----|

e-------------------------------------------|
B-------------------------------------------|
G-------------------------------------------|
D---0---0---0---4---------------------------|
A--5-5-5-5-5-5-5----------------------------|
E-3---3---3---3-----------------------------|


Chorus
e---------------------------------------|
B---------------------------------------|
G-7-------------------------------------|
D-7(12x)-7(12x)--9(12x)--5(12x)---------|
A-5------7-------9-------5--------------|
E--------5-------7-------3--------------|


Verse 2x
e------------------------------------------------------|
B------------------------------------------------------|
G---0---0---0---0--------------------------------------|
D--7-7-7-7-7-7-7-7----0---0---0---0-----7---7---7---7--|
A-5---5---5---5------7-7-7-7-7-7-7-7---9-9-9-9-9-9-9-9-|
E-------------------5---5---5---5-----7---7---7---7----|

e-------------------------------------------|
B-------------------------------------------|
G-------------------------------------------|
D---0---0---0---4---------------------------|
A--5-5-5-5-5-5-5----------------------------|
E-3---3---3---3-----------------------------|

Chorus
e---------------------------------------|
B---------------------------------------|
G-7-------------------------------------|
D-7(12x)-7(12x)--9(12x)--5(12x)---------|
A-5------7-------9-------5--------------|
E--------5-------7-------3--------------|

Outro
e--------------------------------------------|
B--------------------------------------------|
G---0----------------------------------------|
D--7-7--0-----7-----0---0---0---4~~~~~-------|
A-5----7-7---9-9---5-5-5-5-5-5-5-------------|
E-----5-----7-----3---3---3---3--------------|
Tap to rate this tab
 
# A B C D E F G H I J K L M N O P Q R S T U V W X Y Z