Song name
# A B C D E F G H I J K L M N O P Q R S T U V W X Y Z

Emotional Discontent - Stop The Silence tab

This is a very easy song to play and sounds great it has a mellow,
sad sound and can be played in drop ?D? or standard tuning.
Emotional discontent is a great band, local to Northern Florida?

?Intro?
E---------------------------------------------------------------------------------|
B---------------------------------------------------------------------------------|
G---------------------------------------------------------------------------------|
D------9-------9--------------------------------------------------------------X 2-|
A---7----7-7---------11-------11-----7-------7--------9--------9------------------|
E-----------------9-9------9-9------5-----5-5-----7-7-----7-7---------------------|

?Verse?
E--------------------------------------------------------------------------------|
B--------------------------------------------------------------------------------|
G--------------------------------------------------------------------------------|
D---9-9--11-9-9--------------------------------------------------------------X 5-|
A---7-7--7--7-7-----11--11-12-11-11-----7-7-9-7-7-----9-9-11-9-9-----------------|
E-----------------------9---9---9---9--9------5-5-5-5-5-----7-7--7-7-7-----------|

?Chorus?
E-------------------------------------------------------------------------|
B-------------------------------------------------------------------------|
G-------------------------------------------------------------------------|
D---9-9-9-9-9---------------------------------------------------------X 5-|
A?7-7-7-7-7-----11-11-11-11-11----7-7-7-7-7----9-9-9-9-9------------------|
E---------------------9---9---9---9--9----5-5-5-5-5----7-7-7-7-7----------|
Tap to rate this tab
# A B C D E F G H I J K L M N O P Q R S T U V W X Y Z