Song name
# A B C D E F G H I J K L M N O P Q R S T U V W X Y Z

Emperor - Inno A Satana tab



Inno a Satana performed by Emperor on In The Nightside Eclipse



Tabbed by Vincent Rodica
E-mail romochov@yahoo.com


|--------------------------------|
|--------------------------------|
|--------------9-8---------------|
|-------8-9-8-------77-----------| 
|-6-9-------------------7-8-7--5-|
|--------------------------------|


|---------------------------------|
|---------------------------------|
|----------9"----6-7-6-8-66-9-8-6-|
|-------8"------------------------|
|-6"--9"--------------------------|
|---------------------------------|


|-----------------------------------------------------------------|
|-----------------------------------------------------------------|
|-----------------------------------------------------------------|
|-----------------------------------------------------------------|
|-------------------------5"-------7"-----4"----2"-3"-4"-5"-------|
|--0"--7"--0"--5"--0"--7"------3"------3"-------------------------|


|-------------------------------------------|
|---------5"--------5"----------------------|
|-------5"----------------------------------|
|----2"----------2"-------------------------|
|--3"----------0"-------3"-4"-3"------------|
|-------------------------------4"-3"-2"-1"-|


|------------|
|------------|
|------------|
|------------|
|-0--3--0--3-|
|-2--1--2--5-|


|--------------|
|--------------|
|--------------|
|-2"-3"----11"-|
|-0"-0"--s=0"--|
|--------------|


|---|
|---|
|---|
|---|
|-0-| End playing this five times
|-2-|
Tap to rate this tab
 
# A B C D E F G H I J K L M N O P Q R S T U V W X Y Z