Song name
# A B C D E F G H I J K L M N O P Q R S T U V W X Y Z

Emperor - The Loss And Curse Of Reverence tab

EMPEROR'S
The Loss and Curse Of Reverence
off Anthem to the welkin at dusk album
Tabbed by Florent Campana
http://www.geocities.com/WestHollywood/Stonewall/8634/se_i.htm
campana@clotaire.iuta.u-nancy.fr
flo666@caramail.com

/ means slide
h means hammering



For this song put your amp like this 
  \     |     /     \
Low  Medium high reverb

i use the boss hyper metal pedal
 
  |      \    \        /
level  low  high  distortion

Intro
---------------------------------------
---------------------------------------
---------------------------------------
-4-----555-4------------------4--------
-2-2-3-333-2-2-3-2h3h5-323202-2254-----
---0-1-------0-1---------------032-----
The drums will help you here



That so cool riff that everybody knows
Verses
--------------------------------------
--------------------------------------
-----------5--------------------------
---1---/h5---5---/h1-------4----44----
-3--------------------3---------------
-------------------------2----2-------
Play all that tremolo of course!

My guitar is tuned in Eb, i think others tuning are ok...
except open tunings...
Tap to rate this tab
 
# A B C D E F G H I J K L M N O P Q R S T U V W X Y Z