Song name
# A B C D E F G H I J K L M N O P Q R S T U V W X Y Z

Emperor - With Strength I Burn tab

"With Strenght I Burn" - Emperor
by Thirdeye (thirdeye@priv.onet.pl)


RIFF A 
E|-----------0------------------
B|-----------0------------------
G|-----------0--4-4-4-5-5-5-4---
D|--2-2-2-2--2--4-4-4-5-5-5-4---
A|--2-2-2-2--2--2-2-2-3-3-3-2---
E|--0-0-0-0--0------------------


RIFF B (Tremolo)
"...Grant me sight so I can see..."
E|---------------
B|---------------
G|--2--5--4--5---
D|---------------
A|---------------
E|---------------
Tap to rate this tab
# A B C D E F G H I J K L M N O P Q R S T U V W X Y Z