Song name
# A B C D E F G H I J K L M N O P Q R S T U V W X Y Z

Emperor - Curse You All Men tab

Help us improve GuitareTab! Take a short survey!
Curse You All Men! by: Emperor 

E|-----------------------------------------|
B|-----------------------------------------|
G|------------------------9h10--------12h13|
D|-----------------------------------------|
A|------------------------7h8---------10h11|
E|8-7-7-6-8-7-7-6-8-7-7-6-----8-7-7-6------|repeat
 [. . . . . . . . . . . .]   [. . . .]
      palm mute              palm mute

E|-----------------------------------------------------|
B|-----------------------------------------------------|
G|-------9h10-----12h13-------9h10-10-10/12-12-12h13---|
D|-----------------------------------------------------|
A|-------7h8------10h11-------7h8--8---8/10-10-10h11---|
E|-0-000-----0000--------0000--------------------------|repeat 9 more times
  [. ...]   [....]      [....]
    pm       pm           pm

 Here is that little lead part.
|-------------------------------------------------------------|
|-------------------------------------------------------------|
|-------------------13-12------------------------------p.h.13-|
|-13----------------------14-13-------13----------------------|
|----14-13-11-13-14-------------13-14----14-13-11-13-14-------|
|-------------------------------------------------------------|continued below

|-------------------------------------------------------------------|
|-------------------------------------12-14----12-------------11-12~|
|-------------------13-12----------12-------15----13-15-11-13-------|
|-13----------------------14-13-14----------------------------------|
|----14-13-11-13-14-------------------------------------------------|
|-------------------------------------------------------------------|
Related for Curse You All Men tab