Song name
# A B C D E F G H I J K L M N O P Q R S T U V W X Y Z

Emperors - Fight Me Back tab

Fight Me Back - THE EMPERORS

.:Intro/Verse:.

G#
Did I hear you singing out...
Cm
Something about a....


e|-------------------------|
B|-11-11-------------------|
G|-------12-12-13-13-12-12-|
D|-------------------------|
A|-------------------------|
E|-------------------------| Repeat

.:Chorus 1:.

G# - C - Bb

e|-----------------------------|
B|-----------------------------|
G|-5-7-8--12~--3~--10-10-10-8--|
D|-----------------------------|
A|-----------------------------|
E|-----------------------------|

.:Verse:.

.:Chorus 2:.

G# - C - Bb

e|------------------------------|
B|------------------------------|
G|-5-7-8--12~--3~--10-10-10-8-8-|
D|------------------------------|
A|------------------------------|
E|------------------------------|x2


G# - C - Bb - C# - G#

e|------------------------------|
B|------------------------------|
G|-5-7-8--14*-10*-14*-10*-12*-8-|
D|------------------------------|
A|------------------------------|
E|------------------------------|


.:Bridge:.

F - G# - C# - C

.:Chorus 2:.

Repeat, end on G#
Tap to rate this tab
# A B C D E F G H I J K L M N O P Q R S T U V W X Y Z