Song name
# A B C D E F G H I J K L M N O P Q R S T U V W X Y Z

Empire Empire I Was A Lonely Estate - Everything Is Connected And Everything Matters tab

SONG: Everything Is Connected And Everything Matters
BAND: Empire! Empire!

  (0:00)

e |------------------------------------------------------------|
B |-----------------8-8-8--------------------------------------|
G |-----------------------7-7-7--------------------------------|
D |--5-5-5-10-10-10----------------5-5-5-10-10-10-9-9-9-9-9-9--|
A |------------------------------------------------------------|
E |------------------------------------------------------------|

  (0:10)

e |-------------------------------------------|
B |------8------------------------------------|
G |--4-5---7----7-7s9-5-5----7-7s9-5-5s4-0-0--|
D |-------------------------------------------|
A |-------------------------------------------|
E |-------------------------------------------|

  (0:19)

e |----------------------0------------------------0------|
B |----8-----8-----8-------8------8-----8-----8-----8----|
G |--4---4-5---5-7---7-9--------4---4-5---5-7---7-----5--|
D |------------------------------------------------------|
A |------------------------------------------------------|
E |------------------------------------------------------|

  (1:19)

e |--7-7s8-8-8s10-10-10s12-12-12----7-7s8-8-8s10-10-10-10s15-15-15-15--|
B |--------------------------------------------------------------------|
G |--------------------------------------------------------------------|
D |--------------------------------------------------------------------|
A |--------------------------------------------------------------------|
E |--------------------------------------------------------------------|

  (1:56)                                        (2:33)

e |----------------------------------------|  e |----------7-8--|
B |----------------------------------------|  B |--5s6-6-8------|
G |------5---4h5-5-0--------5---------5----|  G |---------------|
D |--7-7---7------------3-3---3-3s5-5---5--|  D |---------------|
A |----------------------------------------|  A |---------------|
E |----------------------------------------|  E |---------------|

  (3:10)

e |--7-7s8-8-8s10-10-10s12-12-12----7-7s8-8-8s10-10-10-10s15-15-15-15--|
B |--------------------------------------------------------------------|
G |--------------------------------------------------------------------|
D |--------------------------------------------------------------------|
A |--------------------------------------------------------------------|
E |--------------------------------------------------------------------|

  (3:47)

e |-----------------------------------------------------------15--|
B |--12-12-12-13-13-13-13-15-15-15-15-17-17-17-17----12-12-12-----|
G |---x--x--x--x--x--x--x--x--x--x--x--x--x--x--x-----x--x--x-----|
D |---9--9--9s10-10-10-10s12-12-12-12s14-14-14-14-----9--9--9-----|
A |---------------------------------------------------------------|
E |---------------------------------------------------------------|

http://www.facebook.com/empireempireiwasalonelyestate

Tabbed by - kieranrees@gmail.com
Tap to rate this tab
# A B C D E F G H I J K L M N O P Q R S T U V W X Y Z