Song name
# A B C D E F G H I J K L M N O P Q R S T U V W X Y Z

Empire Empire I Was A Lonely Estate - How To Make Love Stay tab

Tuning: EADGBe
Capo 2

Verse:
e-------------------------------------------|
B-------------------------------------------|
G--0-0-0-0-0-0-0-0----0-----0-----0---------|
D-4-4-4-4-4-4-4-4---7---9-9---7-7---12-12-10|
A-------------------------------------------|
E-------------------------------------------|

Chorus:
e-------------------------------------------|
B-------------------------------------------|
G-------------------------------------------|
D-12-10-9-7-9-5-12-10-9-7-5-4---------------|
A-------------------------------------------|
E-------------------------------------------|

Outro:
e-------------------------------------------|
B-------------------------------------------|
G--0---0---0----0----0---0---0---0----------|
D-7-7-9-9-5-5-12-12-9-9-7-7-5-5-4-4---------|
A-------------------------------------------|
E-------------------------------------------|

Verse
Chorus
Verse
Outro
Tap to rate this tab
# A B C D E F G H I J K L M N O P Q R S T U V W X Y Z