Song name
# A B C D E F G H I J K L M N O P Q R S T U V W X Y Z

Empire Empire I Was A Lonely Estate - Lilly I Have Something To Tell You tab

-------------------------------------------------------------------------------
 Lilly, I Have Something Important To Tell You - Empire! Empire! (I Was A Lonely Estate)
-------------------------------------------------------------------------------
Tabbed by: seapuppy
E-mail: screamoman55@hotmail.com

Tuning: Standard

This is obviously not complete, and may be wrong, but this is what I hear and when I
play it, it seems to fit well with the rhythm.
It basically repeats this throughout the song, and changes a little with time
signatures, but those are easy to figure out

e |--------------------------------------------------|
B |--------------------------------------------------|
G |--------------------------------------------------|
D |--7-7-7-7-7-7-7-7-5-5-5-5-5-5-5-5-4-4-4-4-4-4-4-4-|
A |--0-0-0-0-0-0-0-0-0-0-0-0-0-0-0-0-0-0-0-0-0-0-0-0-|
E |--------------------------------------------------|

e |------------------------------------|
B |------------------------------------|
G |------------------------------------|
D |--2-2-2-2-2-2-0-0-------------------|
A |--0-0-0-0-0-0-0-0-------------------|
E |------------------------------------|

And it basically repeats like this throughout the song. All the notes are slides, so you
would slide form 7 to 5, to 4, etc.


************************************

| /   slide up
| \   slide down
| h   hammer-on
| p   pull-off
| ~   vibrato
| +   harmonic
| x   Mute note
| b   Bend
| pb  Pre-bend
| br  Bend release
| pbr Pre-bend release
| brb Bend release bend

************************************
Tap to rate this tab
 
# A B C D E F G H I J K L M N O P Q R S T U V W X Y Z