Song name
# A B C D E F G H I J K L M N O P Q R S T U V W X Y Z

Empire Empire I Was A Lonely Estate - I Swim Like A Minnow tab

-------------------------------------------------------------------------------
         I SWIM LIKE A MINNOW - Empire! Empire! (I Was A Lonely Estate)
-------------------------------------------------------------------------------
Tabbed by: pwdftw
Tuning: Standard


Left Guitar:
e|----------------|----------------|----------------|----------------|
B|----------------|----------------|----------------|----------------|
G|----------------|----------------|----------------|----------------|
D|--5---5---5---5-|--5---5---5---5-|--7---7---7---7-|--7---7---7---7-|
A|7---7---7---7---|7---7---7---7---|5---5---5---5---|5---5---5---5---|
E|----------------|----------------|----------------|----------------|

e|----------------|----------------|
B|----------------|----------------|
G|----------------|----------------|
D|--0---0---0---0-|--0---0---0---0-|
A|3---3---3---3---|3---3---3---3---|
E|----------------|----------------|

Right Guitar:
e|----------------|-----------------|----------------|------------------|
B|--8---8---8---8-|--8---8---8----8-|--8---8---8---8-|--8---8----8----8-|
G|----------------|-----------------|----------------|------------------|
D|9---9---9---9---|9---9---10---10--|9---9---9---9---|9---9---10---10---|
A|----------------|-----------------|----------------|------------------|
E|----------------|-----------------|----------------|------------------|

e|--------------------|------------------|--------------------|------------------|
B|--12---12---12---12-|--10---10---8---8-|--12---12---12---12-|--10---10---8---8-|
G|--------------------|------------------|--------------------|------------------|
D|0----0----0----0----|0----0----0---0---|0----0----0----0----|0----0----0---0---|
A|--------------------|------------------|--------------------|------------------|
E|--------------------|------------------|--------------------|------------------|

This is basically repeated throughout the whole song except the tiny part in the middle.
Here's the basic idea for the right guitar at that part. Strum these: (8th notes)
              
              I'm positive here
e|--|--|7-|7-|-----|-|-----|--|
B|8-|8-|8-|8-|-----|-|-----|--|
G|0-|0-|0-|0-|0--0-|0|0--0-|0-|
D|9-|9-|9-|9-|10-9-|5|10-9-|12|
A|10|10|10|10|-----|-|-----|--|
E|--|--|--|--|-----|-|-----|--|

Help with the left guitar for this part would be appreciated :)

After that part, just go back to repeating the main thing.
Tap to rate this tab
# A B C D E F G H I J K L M N O P Q R S T U V W X Y Z