Song name
# A B C D E F G H I J K L M N O P Q R S T U V W X Y Z

Empire Empire I Was A Lonely Estate - How To Make Love Stay tab

Capo 2

This is based on Mean Mr Mustards guitar pro tab

e|--------------------------------------------------------------------|
B|--------------------------------------------------------------------|
G|----0---0---0---0---0---0---0---0-----0-------0-------0-------------|
D|--4---4---5---5---4---4---5---5---7-----9-9-----7-7-----12-12--10---|
A|--------------------------------------------------------------------| x6
E|--------------------------------------------------------------------|

e|--------------------------------------------------------------------|
B|----0----0---0---0---0----------------------------------------------|
G|--7---5---4----2---4------------------------------------------------|
D|-----------------------5--------------------------------------------|
A|--------------------------------------------------------------------| x16
E|--------------------------------------------------------------------|

e|--------------------------------------------------------------------|
B|--------------------------------------------------------------------|
G|----0---0---0---0---0---0---0---0-----0-------0-------0-------------|
D|--4---4---5---5---4---4---5---5---7-----9-9-----7-7-----12-12--10---|
A|--------------------------------------------------------------------| x4
E|--------------------------------------------------------------------|

This goes on until the end...
e|--------------------------------------------------------------------|
B|--------------------------------------------------------------------|
G|----0-------0-------0--------0--------0-------0-------0-------0-----|
D|--7---7---9---9---5---5---12---12---9---9---7---7---5---5---4---4---|
A|--------------------------------------------------------------------|
E|--------------------------------------------------------------------|
Tap to rate this tab
 
# A B C D E F G H I J K L M N O P Q R S T U V W X Y Z