Song name
# A B C D E F G H I J K L M N O P Q R S T U V W X Y Z

Empire Empire I Was A Lonely Estate - They Will Throw Us To The Wolves tab

Standard

Tabbed with help From Your Graves guitar pro version.

e|-------------------------------------------------------------------|
B|-------------------------------------------------------------------|
G|------7------4----------------------------7------4------0----------|
D|--------------------4-----5-5-5-4-----------------------4----------|
A|--7------5------3-----------------5-5/7------5------3--------------| x2
E|-----------------------3-------------------------------------------|

e|---------------------------------------------------------------|
B|---------------------------------------------------------------|
G|-------------4-4-4-4-4-4-7-7-7-7-7-7-4-4-4-4-4-4---------------|
D|-5-5-5-5-5-5---------------------------------------------------| 
A|---------------------------------------------------------------|
E|---------------------------------------------------------------|  These
                                                                    together
e|---------------------------------------------------------------|    x4
B|---------------------------------------------------------------| 
G|---------------------------------------------------------------|
D|-7-7-7-7-7-7-4-4-4-4-4-4-7-7-7-7-7-7-5-5-5-5-5-5---------------|
A|---------------------------------------------------------------| 
E|---------------------------------------------------------------|

e|---------------------------------------------------------------|
B|--8/10-12---12/13/12-------------------------------------------|
G|---------------------------------------------------------------|
D|---------------------------------------------------------------|
A|---------------------------------------------------------------| x4
E|---------------------------------------------------------------|

e|---------------------------------------------------------------|
B|---------------------------------------------------------------|
G|--7-7-7-7-7-7-5-5-5-5-5-5--------------------------------------|
D|--------------------------9-9-9-9-9-9-7-7-7-7-7-7--------------|
A|---------------------------------------------------------------| x 5
E|---------------------------------------------------------------|


e|---------------------------------------------------------------|
B|---------------------------------------------------------------|
G|--7-7-7-7-7-7-5-5-5-5-5-5--------------------------------------|
D|--------------------------9-9-9-9-9-9-7-7-7-7-7-5--------------|
A|---------------------------------------------------------------| Last time
E|---------------------------------------------------------------|
Tap to rate this tab
 
# A B C D E F G H I J K L M N O P Q R S T U V W X Y Z