Song name
# A B C D E F G H I J K L M N O P Q R S T U V W X Y Z

Empire Empire - Ko Ko tab

Help us improve GuitareTab! Take a short survey!
empire! empire!- k.o. k.o. (the most of my worries are the least of your concerns)

there a real good band 
and there songs are awsome  

capo on 1st fret

its all done in clean 

e|------------------------------------------|
B|------------------------------------------|
G|----0---0--------0---0--------------------|
D|---0---0--------0---0----------reapeat----|
A|--7---3--2-----7---3---2------------------|
E|------------------------------------------|

and i think the next bit 

is something like 

e|------------------------------------------|
B|--8888--8888--8888-----3--3333------------|
G|------------------------------------------|
D|------------------------------------------|
A|--7777--7777--7777-----3--3333------------|
E|------------------------------------------|
 
something like that 


any ?'s msg me 

matty_drake@hotmail.co.uk
Related for Ko Ko tab